Guitar Tabs, Chords and Lyrics
Server problems seems to be fixed. Chordie has been experiencing problems with songs disappearing. These issues now seems to be fixed, but still verifying the fix. If you find anything strange, please email admin@chordie.com.


Vengeance Falls   Trivium

 
 |------|
 |------|
 |------|

 


 |-X\\\-|


 |-X\\\-|


 |-X\\\-|


 


 Guitar 1


 

 
 |-----------------------------------------------------------------|
 |-----------------------------------------------------------------|
 |-----------------------------------------------------------------|
 |-0-M-------------------------------------------------------------|
 |-0-M-------------------------------------------------------------|
 |-0-M-------------------------------------------------------------|

 


 |


 |Guitar 2


 

 
 |-----------------------------------------------------------------|
 |-----------------------------------------------------------------|
 |-----------------------------------------------------------------|
 |-----------------------------------------------------------------|
 |-----------------------------------------------------------------|
 |-0-0-0-0-0-0-0-0-0-0-0-0-0-0-0-0-0-0-0-0-0-0-0-0-0-0-0-0-0-0-0-0-|

 


 


 Guitar 1


 

 
 |-----------------------------------------------------------------|
 |-----------------------------------------------------------------|
 |-----------------------------------------------------------------|
 |-----------------------------------------------------------------|
 |-----------------------------------------------5h8p5p0-----------|
 |-------------------------------------------------------5~~~~~~~~-|

 


 |


 |Guitar 2


 

 
 |-----------------------------------------------------------------|
 |-----------------------------------------------------------------|
 |-----------------------------------------------------------------|
 |-----------------------------------------------------------------|
 |-----------------------------------------------5h8p5p0-----------|
 |-0-0-0-0-0-0-0-0-0-0-0-0-0-0-0-0-0-0-0-0-0-0-0---------5~~~~~~~~-|

 


 


 Both guitars


 

 
 |-----------------------------------------------------------------|
 |-----------------------------------------------------------------|
 |-----------------------------------------------------------------|
 |-----------------------------------------------------------------|
 |-0---------------------------------------------------------------|
 |-0---0-0-0-0-0-0-0-0-0-0-0-0-0-0-0-0-0-0-0-0-0-0-0-0-0-0-0-0-0-0-|
 |-----------------------------------------------------------------|
 |-----------------------------------------------------------------|
 |-----------------------------------------------------------------|
 |-----------------------------------------------------------------|
 |-----------------------------------------------5h8p5p0-----------|
 |-0-0-0-0-0-0-0-0-0-0-0-0-0-0-0-0-0-0-0-0-0-0-0---------5~~~~~~~~-|

 


 


 _________________________________________________________________________


 


 The drums then kick in and both guitars continue playing the riff below


 


 Verse 1 (Chugging)


 Both guitars


 

 
 |-----------------------------------------------------------------|
 |-----------------------------------------------------------------|
 |-----------------------------------------------------------------|
 |-----------------------------------------------------------------|
 |-0---------------------------------------------------------------|
 |-0---0-0-0-0-0-0-0-0-0-0-0-0-0-0-0-0-0-0-0-0-0-0-0-0-0-0-0-0-0-0-|
 |-----------------------------------------------------------------|
 |-----------------------------------------------------------------|
 |-----------------------------------------------------------------|
 |-----------------------------------------------------------------|
 |-----------------------------------------------5h8p5p0-----------|
 |-0-0-0-0-0-0-0-0-0-0-0-0-0-0-0-0-0-0-0-0-0-0-0---------5~~~~~~~~-|
 |-----------------------------------------------------------------|
 |-----------------------------------------------------------------|
 |-----------------------------------------------------------------|
 |-----------------------------------------------------------------|
 |-0---------------------------------------------------------------|
 |-0---0-0-0-0-0-0-0-0-0-0-0-0-0-0-0-0-0-0-0-0-0-0-0-0-0-0-0-0-0-0-|

 


 


 Guitar 1


 

 
 |-----------------------------------------------------------------|
 |-----------------------------------------------------------------|
 |-------------------------------------------------6----BU---(7)---|
 |-----------------------------------------------------------------|
 |-------------------------------------------------4----BU---(5)---|
 |-0-0-0-0-0-0-0-0-0-0-0-0-0-0-0-0-0-0-0-0-0-0-0-0-----------------|

 


 |


 |Guitar 2


 

 
 |-----------------------------------------------------------------|
 |-----------------------------------------------------------------|
 |-------------------------------------------------9----BU--(10)---|
 |-----------------------------------------------------------------|
 |-------------------------------------------------7----BU---(8)---|
 |-0-0-0-0-0-0-0-0-0-0-0-0-0-0-0-0-0-0-0-0-0-0-0-0-----------------|

 


 


 _________________________________________________________________________


 


 Root Verse


 Both guitars


 

 
 |-------------------------------------------------|
 |-------------------------------------------------|
 |-------------------------------------------------|
 |-------------------------------------------------|
 |-------------------------------------------------|
 |-0--0--0--2BU(3)--2BU(3)--0--0-0-0---0-0-0-0-0---|
 |-------------------------------------------------|
 |-------------------------------------------------|
 |-------------------------------------------------|
 |-------------------------------------------------|
 |-------------------------------------0---2---3---|
 |-0--0--0--2BU(3)--2BU(3)--0--0-0-0---0---2---3---|
 |-------------------------------------------------|
 |-------------------------------------------------|
 |-------------------------------------------------|
 |-------------------------------------------------|
 |-------------------------------------------------|
 |-3--3--3--5BU(7)--5BU(7)--3--3-3-3---3-3-3-3-3---|
 |-------------------------------------------------|
 |-------------------------------------------------|
 |-------------------------------------------------|
 |-------------------------------------------------|
 |-------------------------------------6---5---3---|
 |-3--3--3--5BU(7)--5BU(7)--3--3-3-3---6---5---3---|

 


 


 _________________________________________________________________________


 


 Main Verse


 Both guitars


 

 
 |------------------------------------------------------------------------|
 |------------------------------------------------------------------------|
 |------------------------------------------------------------------------|
 |------------------------------------------------------------------------|
 |---------------------------------------------------------------0--2--3--|
 |-0--0--0--2BU(3)--000-0-0---2BU(3)--0--0--0--2BU(3)--000-0-0---0--2--3--|
 |------------------------------------------------------------------------|
 |------------------------------------------------------------------------|
 |------------------------------------------------------------------------|
 |------------------------------------------------------------------------|
 |---------------------------------------------------------------6--5--3--|
 |-3--3--3--5BU(7)--333-3-3---5BU(7)--3--3--3--5BU(7)--333-3-3---6--5--3--|

 


 


 Guitar 1


 

 
 |------------------------------------------------------------------------|
 |------------------------------------------------------------------------|
 |------------------------------------------------------------------------|
 |------------------------------------------------------------------------|
 |----------------------------333-555----------------------------0--2--3--|
 |-0--0--0--2BU(3)--000-0-000---------0--0--0--2BU(3)--000-0-000-0--2--3--|

 


 |


 |Guitar 2


 

 
 |------------------------------------------------------------------------|
 |------------------------------------------------------------------------|
 |----------------------------555-777-------------------------------------|
 |------------------------------------------------------------------------|
 |---------------------------------------------------------------0--2--3--|
 |-0--0--0--2BU(3)--000-0-000---------0--0--0--2BU(3)--000-0-000-0--2--3--|

 


 


 Guitar 1


 

 
 |------------------------------------------------------------------------|
 |------------------------------------------------------------------------|
 |------------------------------------------------------------------------|
 |------------------------------------------------------------------------|
 |----------------------------666-888----------------------------6--5--3--|
 |-3--3--3--5BU(7)--333-3-333---------3--3--3--5BU(7)--333-3-333-6--5--3--|

 


 |


 |Guitar 2


 

 
 |------------------------------------------------------------------------|
 |--------------------------------666-------------------------------------|
 |----------------------------888-----------------------------------------|
 |------------------------------------------------------------------------|
 |---------------------------------------------------------------6--5--3--|
 |-3--3--3--5BU(7)--333-3-333---------3--3--3--5BU(7)--333-3-333-6--5--3--|

 


 


 _________________________________________________________________________


 


 Pre Chorus


 Guitar 1


 

 
 |---------------------------------------------------------------------------|
 |---------------------------------------------------------------------------|
 |---------------------------------------------------------------------------|
 |-0-------------------------------------------------------------------------|
 |-0-------------------------------------------------------5h8p5p0-----------|
 |-0---------------------------------------------------------------5~~~~~~~~-|

 


 |


 |Guitar 2


 

 
 |---------------------------------------------------------------------------|
 |---------------------------------------------------------------------------|
 |---------------------------------------------------------------------------|
 |---------------------------------------------------------------------------|
 |-----5-----------4-----7-----8-----4-----5---------------5h8p5p0-----------|
 |-0-0---0-0-8-0-0---0-0---0-0---0-0---0-0---0-0-0-0-0-0-0---------5~~~~~~~~-|

 


 


 Both Guitars


 

 
 |------------------------------------------------------------------|
 |------------------------------------------------------------------|
 |------------------------------------------------------------------|
 |------------------------------------------------------------------|
 |-----5-----------4-----7-----8-----4-----5------------------------|
 |-0-0---0-0-8-0-0---0-0---0-0---0-0---0-0---0-0-0-000000000---0000-|

 


 


 _________________________________________________________________________


 


 Chorus


 Guitar 1


 

 
 |------------------------------------------|
 |------------------------------------------|
 |------------------------------------------|
 |-0----------------------------------------|
 |-0----------------------------------------|
 |-0----------------------------------------|

 


 |


 |Guitar 2


 

 
 |------------------------------------------|
 |---------------------10------8------------|
 |-7777-10-7777-9-7777----7777---7777-10~~~-|
 |------------------------------------------|
 |------------------------------------------|
 |------------------------------------------|

 


 


 Guitar 1


 

 
 |-------------------------------------|
 |-------------------------------------|
 |-------------------------------------|
 |-3-----------------------------------|
 |-3-----------------------------------|
 |-3-----------------------------------|

 


 |


 |Guitar 2


 

 
 |-------------------------------------|
 |------8------6------10---8---6---5h6-|
 |-5555---5555---5555----5---5---5-----|
 |-------------------------------------|
 |-------------------------------------|
 |-------------------------------------|

 


 


 Guitar 1


 

 
 |---------------------------------------|
 |---------------------------------------|
 |-2-------------------------------------|
 |-2-------------------------------------|
 |-0-------------------------------------|
 |---------------------------------------|

 


 |


 |Guitar 2


 

 
 |--------------------------------------|
 |--------------------------------------|
 |------9------9------7------7------7h9-|
 |-7777---7777---7777---7777---7777-----|
 |--------------------------------------|
 |--------------------------------------|

 


 


 Guitar 1


 

 
 |----------------------------------------|
 |----------------------------------------|
 |---------------------10-9-7-------------|
 |-5--------------------------10-8-7-8-10-|
 |-5--------------------------------------|
 |-5--------------------------------------|

 


 |


 |Guitar 2


 

 
 |--------------------------------------|
 |------10------8------10-8-6-----------|
 |-0000----0000---0000--------9-7-6-7-9-|
 |--------------------------------------|
 |--------------------------------------|
 |--------------------------------------|

 


 


 _________________________________________________________________________


 


 Solo 1 (CKB)


 Guitar 1 (Rhythm)


 

 
 |-------------------------------------------------|
 |-------------------------------------------------|
 |-------------------------------------------------|
 |-------------------------------------------------|
 |-------------------------------------------------|
 |-0--0--0--2BU(3)--2BU(3)--0--0-0-0---0-0-0-0-0---|
 |-------------------------------------------------|
 |-------------------------------------------------|
 |-------------------------------------------------|
 |-------------------------------------------------|
 |-------------------------------------0---2---3---|
 |-0--0--0--2BU(3)--2BU(3)--0--0-0-0---0---2---3---|
 |-------------------------------------------------|
 |-------------------------------------------------|
 |-------------------------------------------------|
 |-------------------------------------------------|
 |-------------------------------------------------|
 |-3--3--3--5BU(7)--5BU(7)--3--3-3-3---3-3-3-3-3---|
 |-------------------------------------------------|
 |-------------------------------------------------|
 |-------------------------------------------------|
 |-------------------------------------------------|
 |-------------------------------------6---5---3---|
 |-3--3--3--5BU(7)--5BU(7)--3--3-3-3---6---5---3---|

 


 


 Guitar 2 (Lead)


 

 
 |-12p9--9-12p9--9-15p12--12-15p12--12-18p15--15-18p15--15-21p18--18-21p18--18-|
 |-----11------11-------14--------14--------17--------17--------20--------20---|
 |-----------------------------------------------------------------------------|
 |-----------------------------------------------------------------------------|
 |-----------------------------------------------------------------------------|
 |-----------------------------------------------------------------------------|

 


 


 (Fast pick tapping)


 T T T T T T T T T T T T


 

 
 |-22p21-22p21-22p21-22p21-22p18-22p18-22p18-22p18-22p17-22p17-22p17-22p17-|
 |-------------------------------------------------------------------------|
 |-------------------------------------------------------------------------|
 |-------------------------------------------------------------------------|
 |-------------------------------------------------------------------------|
 |-------------------------------------------------------------------------|

 


 


 T T T T T T T T T T T T


 

 
 |-22p15-22p15-22p15-22p15-------------------------------------------------|
 |-------------------------20p15-20p15-20p15-20p15-20p14-20p14-20p14-20p14-|
 |-------------------------------------------------------------------------|
 |-------------------------------------------------------------------------|
 |-------------------------------------------------------------------------|
 |-------------------------------------------------------------------------|

 


 


 T T T T


 

 
 |----------------------------------|

 


 |-20p15-20p15-20p15-20p15\10~~~~~~-|


 

 
 |----------------------------------|
 |----------------------------------|
 |----------------------------------|
 |----------------------------------|

 


 


 (Standard middle finger tapping)


 T T T T T T T T


 

 
 |-------------------------------------------------------------|
 |-------------------------------------------------------------|
 |-10p9p7-10p9p7-10p9p7-10p9p7-12p10p9-12p10p9-12p10p9-12p10p9-|
 |-------------------------------------------------------------|
 |-------------------------------------------------------------|
 |-------------------------------------------------------------|

 


 


 T T T T T T T T


 

 
 |-------------------------------------------------------------------------|
 |-------------------------------------------------------------------------|
 |-14p12p10-14p12p10-14p12p10-14p12p10-15p14p12-15p14p12-15p14p12-15p14p12-|
 |-------------------------------------------------------------------------|
 |-------------------------------------------------------------------------|
 |-------------------------------------------------------------------------|

 


 


 NH


 

 
 |-----------------------------------------------------------|
 |-----------------------------------------------------------|
 |-14-10--10-14-10--10-12-9--9-12-9--9-10p9p7--9p7p0-5DB-----|
 |------12--------12-------11------11------------------------|
 |-----------------------------------------------------------|
 |-----------------------------------------------------------|

 


 


 _________________________________________________________________________


 


 Repeat Main Verse


 


 Repeat Pre Chorus


 


 Repeat Chorus


 


 _________________________________________________________________________


 


 Bridge


 Guitar 1 (only)


 

 
 |-----------------------------------------------------------------|
 |-----------------------------------------------------------------|
 |-----------------------------------------------------------------|
 |-----------------------------------------------------------------|
 |-------5-----8-------------------------7-----4-------------------|
 |-000-0---0-0---0-000-0-0-000-000-000-0---0-0---0-000-0-0-0-0-2-3-|

 


 


 Guitar 1 (only)


 

 
 |---------------------------------------------------------|
 |---------------------------------------------------------|
 |---------------------------------------------------------|
 |---------------------------------------------------------|
 |-------5-----8-------------------------7-----4-----------|
 |-000-0---0-0---0-000-0-0-000-000-000-0---0-0---0-000-0-0-|

 


 


 Guitar 1


 

 
 |------------------|
 |------------------|
 |------------------|
 |------------------|

 


 |-8p0h7h8h10-/-12~-|


 

 
 |------------------|

 


 |


 |Guitar 2


 

 
 |----------------|
 |----------------|
 |----------------|
 |----------------|

 


 |-5p0h4h5h7-/-8~-|


 

 
 |----------------|

 


 


 Guitar 1


 

 
 |-----------------------------------------------------------------|
 |-----------------------------------------------------------------|
 |-----------------------------------------------------------------|
 |-----------------------------------------------------------------|
 |-------5-----8-------------------------7-----4-------------------|
 |-000-0---0-0---0-000-0-0-000-000-000-0---0-0---0-000-0-0-0-0-2-3-|

 


 |


 |Guitar 2


 

 
 |-----------------------------------------------------------------|
 |-----------------------------------------------------------------|
 |-----------------------------------------------------------------|
 |-----------------------------------------------------------------|
 |-------8-----12------------------------11----7-------------------|
 |-000-0---0-0---0-000-0-0-000-000-000-0---0-0---0-000-0-0-0-0-2-3-|

 


 


 Guitar 1


 

 
 |-----------------------------------------------------------------------|
 |-----------------------------------------------------------------------|
 |-----------------------------------------------------------------------|
 |-----------------------------------------------------------------------|
 |-------5-----8-------------------------7-----4-----------5p0h4h5h7-/-8-|
 |-000-0---0-0---0-000-0-0-000-000-000-0---0-0---0-000-0-0---------------|

 


 |


 |Guitar 2


 

 
 |-------------------------------------------------------------------------|
 |-------------------------------------------------------------------------|
 |-------------------------------------------------------------------------|
 |-------------------------------------------------------------------------|
 |-------8-----12------------------------11----7-----------8p0h7h8h10-/-12-|
 |-000-0---0-0---0-000-0-0-000-000-000-0---0-0---0-000-0-0-----------------|

 


 


 _________________________________________________________________________


 


 Solo 2 (MKH)


 Guitar 2 (Rhythm)


 

 
 ||-------------------------------------------------||
 |o-------------------------------------------------o|
 ||-------------------------------------------------|| x4
 ||-------------------------------------------------||
 |o-------------------------------------------------o|
 ||-0--0--0--2BU(3)--2BU(3)--0--0-0-0---0-0-0-0-0---||

 


 


 Guitar 1 (Lead)


 

 
 |-----------------------------------------------------------------------------|
 |-11-10--10-11-10-11-10--10-11-10-11-10--10-10-8--8-10-8-10-8--8-10-8-10-8--8-|
 |------12--------------12--------------12-------10-----------10-----------10--|
 |-----------------------------------------------------------------------------|
 |-----------------------------------------------------------------------------|
 |-----------------------------------------------------------------------------|
 |---------------------------------------------------------------|
 |-8-6---6-8-6-8-6---6-8-6-8-6---6-6-5---5-6-5-6-5---5-5h6-------|
 |-----9-----------9-----------9-------7-----------7-------6~~~~-|
 |---------------------------------------------------------------|
 |---------------------------------------------------------------|
 |---------------------------------------------------------------|
 |-------------------------------------------|
 |-11-10--10-11-10-11-10--10-11-10-11-10--10-|
 |------12--------------12--------------12---|
 |-------------------------------------------|
 |-------------------------------------------|
 |-------------------------------------------|
 |-------------------------------------------|
 |-15-14--14-15-14-15-14--14-15-14-15-14--14-|
 |------15--------------15--------------15---|
 |-------------------------------------------|
 |-------------------------------------------|
 |-------------------------------------------|
 |-------------------------------------------|
 |-17-15--15-17-15-17-15--15-17-15-17-15--15-|
 |------18--------------18--------------18---|
 |-------------------------------------------|
 |-------------------------------------------|
 |-------------------------------------------|
 |----------------------------------------------------13-15-17-13-15-17-|
 |-----------------------------------14-15-17-14-15-17------------------|
 |------------------12-14-15-12-14-15-----------------------------------|
 |-12-14-15-12-14-15----------------------------------------------------|
 |----------------------------------------------------------------------|
 |----------------------------------------------------------------------|

 


 


 |-15BU(17)~~~~-|


 

 
 |--------------|
 |--------------|
 |--------------|
 |--------------|
 |--------------|

 


 


 _________________________________________________________________________


 


 Chorus Variation


 Both Guitars


 

 
 |-----------------------------------------------------------------|
 |-----------------------------------------------------------------|
 |---------------------------------2-------------------------------|
 |-0---------------3---------------2---------------5---------------|
 |-0---------------3---------------0---------------5---------------|
 |-0---------------3-------------------------------5---------------|

 


 


 Guitar 1


 

 
 |------------------------------------------|
 |------------------------------------------|
 |------------------------------------------|
 |-0----------------------------------------|
 |-0----------------------------------------|
 |-0----------------------------------------|

 


 |


 |Guitar 2


 

 
 |------------------------------------------|
 |---------------------10------8------------|
 |-7-7--10-7-7--9-7-7-----7-7----7-7--10~~~-|
 |------------------------------------------|
 |------------------------------------------|
 |------------------------------------------|

 


 


 Guitar 1


 

 
 |-------------------------------------|
 |-------------------------------------|
 |-------------------------------------|
 |-3-----------------------------------|
 |-3-----------------------------------|
 |-3-----------------------------------|

 


 |


 |Guitar 2


 

 
 |-------------------------------------|
 |------8------6------10---8---6---5h6-|
 |-5-5----5-5----5-5-----5---5---5-----|
 |-------------------------------------|
 |-------------------------------------|
 |-------------------------------------|

 


 


 Guitar 1


 

 
 |---------------------------------------|
 |---------------------------------------|
 |-2-------------------------------------|
 |-2-------------------------------------|
 |-0-------------------------------------|
 |---------------------------------------|

 


 |


 |Guitar 2


 

 
 |--------------------------------------|
 |--------------------------------------|
 |------9------9------7------7------7h9-|
 |-7-7----7-7----7-7----7-7----7-7------|
 |--------------------------------------|
 |--------------------------------------|

 


 


 Guitar 1


 

 
 |----------------------------------------|
 |----------------------------------------|
 |---------------------10-9-7-------------|
 |-5--------------------------10-8-7-8-10-|
 |-5--------------------------------------|
 |-5--------------------------------------|

 


 |


 |Guitar 2


 

 
 |--------------------------------------|
 |------10------8------10-8-6-----------|
 |-0-0-----0-0----0-0---------9-7-6-7-9-|
 |--------------------------------------|
 |--------------------------------------|
 |--------------------------------------|

 


 


 _________________________________________________________________________


 


 Repeat Chorus


 


 Repeat Verse 1


 


 _________________________________________________________________________


 


 


 


 [##############################################################################################]  


 [##############################################################################################]#VENGEANCE FALLS##############################################################################


 [##############################################################################################]  


 [##############################################################################################]  


 


 


 ________________________________________________________________________________


 


 


 Intro


 Guitar 1


 

 
 ||---------------------------------------------------------------------------||
 |o---------------------------------------------------------------------------o|
 ||---------------------------------------------------------------------------||
 ||-0-0-0-0-10h12-0-0-0-0-10h12-0-0-0-0-10h12-0-0-0-0-10h12-0-0-0-0-10h12-0-0-||
 |o---------------------------------------------------------------------------o|
 ||---------------------------------------------------------------------------||

 


 


 ________________________________________________________________________________


 


 Build up


 Both guitars


 

 
 ||---------------------------------------------------------------------------|
 |o---------------------------------------------------------------------------|
 ||---------------------------------------------------------------------------|
 ||-0-0-0-0-10h12-0-0-0-0-10h12-0-0-0-0-10h12-0-0-0-0-10h12-0-0-0-0-10h12-0-0-|
 |o---------------------------------------------------------------------------|
 ||---------------------------------------------------------------------------|
 |-----------------------------------------------------------------|
 |-----------------------------------------------------------------|
 |-----------------------------------------------------------------|
 |---------7p0---------7p0---------7p0---------7p0---------7p0-----|
 |-----------------------------------------------------------------|
 |-8-8-8-8-----8-8-8-8-----8-8-8-8-----8-8-8-8-----8-8-8-8-----8-8-|
 |---------------------------------------------------------------------------------------|
 |---------------------------------------------------------------------------------------|
 |---------------------------------------------------------------------------------------|
 |-------------8p0-------------8p0-------------8p0-------------8p0-------------8p0-------|
 |---------------------------------------------------------------------------------------|
 |-10-10-10-10-----10-10-10-10-----10-10-10-10-----10-10-10-10-----10-10-10-10-----10-10-|
 |-----------------------------------------------------------------||
 |-----------------------------------------------------------------o|
 |-----------------------------------------------------------------||
 |---------3p0---------3p0---------3p0---------3p0---------3p0-----||
 |-----------------------------------------------------------------o|
 |-5-5-5-5-----5-5-5-5-----5-5-5-5-----5-5-5-5-----5-5-5-5-----5-5-||

 


 


 ________________________________________________________________________________


 


 


 Verse 1


 Both guitars


 

 
 ||-----------------------------------------------------------------|
 |o-----------------------------------------------------------------|
 ||-----------------------------------------------------------------|
 ||-------------------------------------------------3p0-------------|
 |o-----------------------------------------------------3p0---------|
 ||-00M---00M---0-0-0-0-0-0-00M---00M---0-0-0-0-0-0---------3h5p3p0-|
 |-----------------------------------------------------------------||
 |-----------------------------------------------------------------o|
 |-----------------------------------------------------------------||
 |-------------------------------------------------6p0-3p0---------||
 |---------------------------------------------------------3h5p3p0-o|
 |-00M---00M---0-0-0-0-0-0-00M---00M---0-0-0-0-0-0-----------------||

 


 


 Guitar 1


 

 
 |-----------------------------------------------------------------|
 |-----------------------------------------------------------------|
 |-----------------------------------------------------------------|
 |-----------------------------------------------------------------|
 |-3---3---3---3---3---3---3---3---3---3---3---3---3-3-3-3-3-3-3-3-|
 |-3---3---3---3---3---3---3---3---3---3---3---3-------------------|

 


 |


 

 
 |Guitar 2 NH-------------
 |-----------------------------------------------------------------|
 |-----------------------------------------------------------------|
 |-----------------------------------------------------------------|
 |-------------------------------------------------7-7-7-7-7-7-7-7-|
 |-3---3---3---3---3---3---3---3---3---3---3---3-------------------|
 |-3---3---3---3---3---3---3---3---3---3---3---3-------------------|

 


 


 ________________________________________________________________________________


 


 


 Chorus


 Guitar 1


 

 
 |---------------------------------|---------------------------------|
 |---------------------------------|---------------------------------|
 |---------------------------------|---------------------------------|
 |---------------------------------|---------------------------------|
 |-0-0-0-0-0-0-0-0-0-0-0-0-0-0-0-0-|-3-3-3-3-3-3-3-3-3-3-3-3-3-3-3-3-|
 |-0-0-0-0-0-0-0-0-0-0-0-0-0-0-0-0-|-3-3-3-3-3-3-3-3-3-3-3-3-3-3-3-3-|

 


 |


 |Guitar 2


 

 
 |---------------------------------|---------------------------------|
 |---------------------------------|---------------------------------|
 |-10---\7----/14~~~~~~~~~~~~~~~~~-|-10---\7----/10~~~~~~~~~~~~~~~~~~|
 |---------------------------------|---------------------------------|
 |---------------------------------|---------------------------------|
 |---------------------------------|---------------------------------|

 


 


 Guitar 1


 

 
 |---------------------------------|---------------------------------|
 |---------------------------------|---------------------------------|
 |---------------------------------|---------------------------------|
 |-5-5-5-5-5-5-5-5-5-5-5-5-5-5-5-5-|---------------------------------|
 |-3-3-3-3-3-3-3-3-3-3-3-3-3-3-3-3-|-5-5-5-5-5-5-5-5-5-5-5-5-5-5-5-5-|
 |---------------------------------|-5-5-5-5-5-5-5-5-5-5-5-5-5-5-5-5-|

 


 |


 |Guitar 2


 

 
 |---------------------------------|---------------------------------|
 |---------------------------------|---------------------------------|
 |-12--\10--\9~~~~~~~~~~~~~~~~~~~~~|-12--\10\7~~~~~~~~~~~~~~~~~~~~~~-|
 |---------------------------------|---------------------------------|
 |---------------------------------|---------------------------------|
 |---------------------------------|---------------------------------|

 


 


 ________________________________________________________________________________


 


 Repeat Verse 1


 


 Repeat Chorus


 


 ________________________________________________________________________________


 


 Breakdown


 Guitar 2 (Phaser effect)


 

 
 |-------------------------------------------------------------|
 |-------------------------------------------------------------|
 |-------------------------------------------------------------|
 |-10p0--------14p0--10p0--------15p0-10p0--------14p0-10p0----|
 |-------------------------------------------------------------|
 |-------12p0--------------12p0-------------12p0------------7/-|

 


 


 Guitar 1


 

 
 |--------------------------------------------------------------|
 |--------------------------------------------------------------|
 |--------------------------------------------------------------|
 |-------------------------------------------------14p0-10p0----|
 |-0-0-0-0-M-----------0-0-0-0-M-------0-0-0-0-M----------------|
 |-0-0-0-0-M-----------0-0-0-0-M-------0-0-0-0-M-------------/7-|

 


 |


 |Guitar 2


 

 
 |--------------------------------------------------------------------|
 |--------------------------------------------------------------------|
 |--------------------------------------------------------------------|
 |-10p0----------14p0---10p0----------15p0-10p0----------14p0-10p0----|
 |--------------------------------------------------------------------|
 |--------12p0-----------------12p0---------------12p0-------------7/-|

 


 


 The third and fourth time this is played guitar 1


 lets all the open C# to ring out


 


 The fourth time at the end this is played:


 


 Both guitars


 

 
 |----------------------------------------|
 |----------------------------------------|
 |----------------------------------------|
 |-14p0-10p0----15p0-10p0----17p0-10p0----|
 |----------------------------------------|
 |-----------7/-----------7/-----------7/-|

 


 


 Guitar 1


 

 
 |---------------------|
 |---------------------|
 |---------------------|

 


 |-15p0-14p0-12p0-10p0-|


 

 
 |---------------------|
 |---------------------|

 


 |


 |Guitar 2


 

 
 |---------------------|
 |---------------------|
 |---------------------|

 


 |-19p0-17p0-15p0-14p0-|


 

 
 |---------------------|
 |---------------------|

 


 


 ________________________________________________________________________________


 


 Solo (CKB)


 Guitar 2


 

 
 |-22PB~~-(20)(22)~~-20/22-------------------------------|
 |-------------------------20BU(22)~~-(20)(22)~~-(20)p18-|
 |-------------------------------------------------------|
 |-------------------------------------------------------|
 |-------------------------------------------------------|
 |-------------------------------------------------------|

 


 


 Guitar 2


 

 
 |-------17----------------15-12-13----12----------|
 |-13-15----13-15----13-------------15----13-15-11-|
 |----------------15----14-------------------------|
 |-------------------------------------------------|
 |-------------------------------------------------|
 |-------------------------------------------------|

 


 |


 |Guitar 3


 

 
 |-------20----------------18-15-17----15----------|
 |-17-18----17-18----17-------------18----17-18-15-|
 |----------------19----17-------------------------|
 |-------------------------------------------------|
 |-------------------------------------------------|
 |-------------------------------------------------|

 


 


 Guitar 2


 

 
 |----------13p12-------------------------|
 |-17~~~~~~-------13----------------------|
 |-------------------12\9h10h12-9~~~~~~~~-|
 |----------------------------------------|
 |----------------------------------------|
 |----------------------------------------|

 


 |


 |Guitar 3


 

 
 |----------------------------------------|
 |-13~~~~~~-15p13-------------------------|
 |----------------14----------------------|
 |-------------------14\10h12h14-10~~~~~~-|
 |----------------------------------------|
 |----------------------------------------|

 


 


 T T T T T T T


 

 
 |---------12h15-20p15p12-------------------------------------------|
 |-------13---------------------------------------------------------|
 |-----12-----------------15p14p12-15p14p12-15-15p14p12-15-15p14p12-|
 |---14-------------------------------------------------------------|
 |-15---------------------------------------------------------------|
 |------------------------------------------------------------------|
 |-----------------|

 


 |-15~~~~~~~~~~~~~-|


 

 
 |-----------------|

 


 |-12~~~~~~~~~~~~~-|


 

 
 |-----------------|
 |-----------------|

 


 


 ________________________________________________________________________________


 


 Bridge (Also solo rhythm)


 Both guitars


 

 
 |-----------------------------------------------------------------|
 |-----------------------------------------------------------------|
 |-----------------------------------------------------------------|
 |-------------------------------------3h7---3h7---3h7---3h7---3h7-|
 |-----5h8---5h8---5h8---5h8---5h8---------------------------------|
 |-0-0-----0-----0-----0-----0-----3-3-----3-----3-----3-----3-----|
 |-----------------------------------------------------------------|
 |-----------------------------------------------------------------|
 |-----------------------------------------------------------------|
 |-----2h5---2h5---2h5---2h5---2h5-----5h8---5h8---5h8---5h8---5h8-|
 |-3-3-----3-----3-----3-----3-------------------------------------|
 |---------------------------------5-5-----5-----5-----5-----5-----|

 


 


 Guitar 1


 

 
 |-----------------------------------------------------------------|
 |-----------------------------------------------------------------|
 |-2-0-------------3-2---------------------------------------------|
 |-----3-2-0-----------5-3-2---------------------------------------|
 |-----------4-1-0-----------5-4-----------------------------------|
 |-------------------------------7~~~~~~~~~~~~~~~~~~~~~~~~~~~~~~~~-|

 


 |


 |Guitar 2


 

 
 |-----------------------------------------|
 |-----------------------------------------|
 |-5-3-------------7-5---------------------|
 |-----7-5-3-----------8-7-5---------------|
 |-----------7-5-4-----------8-7-4~~~~~~~~-|
 |-----------------------------------------|

 


 


 Guitar 2


 

 
 |-15BU(17)(15)-13-12-13-12h13p12-------|
 |--------------------------------15-13-|
 |--------------------------------------|
 |--------------------------------------|
 |--------------------------------------|
 |--------------------------------------|

 


 


 ________________________________________________________________________________


 


 


 Repeat Verse 1


 


 The third and fourth time verse 1 is played


 The strings are not muted


 


 Finally play this


 Both guitars


 

 
 |-------------|
 |-------------|
 |-------------|
 |-------------|
 |-------------|
 |-0-0---0-0---|

 


 


 ________________________________________________________________________________


 


 


 


 


 [##############################################################################################]  


 [##############################################################################################]#STRIFE#######################################################################################


 [##############################################################################################]  


 [##############################################################################################]  


 


 


 


 _________________________________________________________________________


 


 


 Intro


 Guitar 1


 

 
 ||-----------------------------------------------------------------|
 |o-----------------------------------------------------------------|
 ||-----------------------------------------------------------------|
 ||-0---------------------------0-----------------------------------|
 |o-0---------------------------0-------5---3---5--/8-------7-------|
 ||-0---------------0---0-0-0---0-----------------------------------|

 


 |


 |Guitar 2


 

 
 ||-----------------------------------------------------------------|
 |o-----------------------------------------------------------------|
 ||-------------------------------------7---5---7--/10------9-------|
 ||-0---------------------------0-----------------------------------|
 |o-0---------------------------0-----------------------------------|
 ||-0---------------0---0-0-0---0-----------------------------------|

 


 


 Guitar 1


 

 
 |-----------------------------------------------------------------||
 |-----------------------------------------------------------------o|
 |-3---------------------------3-----------------------------------||
 |-3---------------------------3-------------------3-2h3p2---------||
 |-1---------------1---1-1-1---1-------5---3---5-----------5---3---o|
 |-----------------------------------------------------------------||

 


 |


 |Guitar 2


 

 
 |------------------------------------------------------------------||
 |------------------------------------------------------------------o|
 |-3---------------------------3-------7---5---7--10-9h10p9---------||
 |-3---------------------------3------------------------------------||
 |-1---------------1---1-1-1---1---------------------------12--10---o|
 |------------------------------------------------------------------||

 


 


 Guitar 2 then switches from an octave harmony to this below


 


 Harmony (Guitar 2)


 

 
 ||-----------------------------------------------------------------|
 |o-----------------------------------------------------------------|
 ||-----------------------------------------------------------------|
 ||-0---------------------------0-------3---2---3--/7-------5-------|
 |o-0---------------------------0-----------------------------------|
 ||-0---------------0---0-0-0---0-----------------------------------|
 |-----------------------------------------------------------------||
 |-----------------------------------------------------------------o|
 |-3---------------------------3-------------------2-0h2p0---------||
 |-3---------------------------3-------3---2---3-----------3---2---||
 |-1---------------1---1-1-1---1-----------------------------------o|
 |-----------------------------------------------------------------||

 


 


 _________________________________________________________________________


 


 


 Build-up Verse


 Guitar 1


 

 
 |------------------------------------------------------------------------------|
 |------------------------------------------------------------------------------|
 |------------------------------------------------------------------------------|
 |-0----------------------------------------------------------------------------|
 |-0----------------------------------------------------------------------------|
 |-0----------------------------------------------------------------------------|


Important: The song above is NOT stored on the Chordie server. The original song is hosted at www.guitaretab.com. Chordie works as a search engine and provides on-the-fly formatting. Chordie does not index songs against artists'/composers' will. To remove this song please click here.

This song is displayed as text-only. Transposing and tuning is only available for chordpro-songs.
Rate #1 of 2 versions

Login - add to songbook

SHARE PAGE  



You need to log in to post comments