Guitar Tabs, Chords and Lyrics
Major upgrade!! After one year development the new version of Chordie is now online! Please give feedback.


Ascendancy  Trivium

Transcribed by Luke Slater (Lukige)
Check out my powertab version!
Music by Matthew K. Heafy
Intro Chorus
Q=212
[F#5] [D5] 
[4/4] Gtr I
 
 PM PM----| PM PM----|
 ||-----------------|-----------------|-----------------|----------------------||
 ||o----------------|-----------------|-----------------|---------------------o||
 ||--------6--------|-----6-----------|-------7---------|-------7--------------||
 ||---4----6-----4--|-(4)-4-----------|--0----7------0--|--(0)--7--------------||
 ||o--4---(4)----4--|-(4)-------------|--0---(0)-----0--|--(0)-(0)------------o||
 ||---4---(4)--4-4--|-(4)-----4-4-4-4-|--0---(0)--0--0--|--(0)-------0-0-0-0---||

|
| Gtr II
 
 | PM PM----| PM PM----|
 ||-----------------|-----------------|-----------------|----------------------||
 ||o----------------|-----------------|-----------------|---------------------o||
 ||--------6--------|-----6-----------|-------2---------|-------2--------------||
 ||---4----6-----4--|-(4)-4-----------|--0----0------0--|--(0)--0--------------||
 ||o--4---(4)----4--|-(4)-------------|--0---(0)-----0--|--(0)----------------o||
 ||---4---(4)--4-4--|-(4)-----4-4-4-4-|--0---(0)--0--0--|--(0)-------0-0-0-0---||

|
| Gtr III
 
 ||-----------------|-----------------|-----------------|----------------------||
 ||o----------------|-----------------|-----------------|---------------------o||
 ||--13---11-----9--|-(9)-------------|-13---11-----14--|-(14)-----------------||
 ||---x----x-----x--|-(x)-------------|--x----x------x--|--(x)-----------------||
 ||o-11----9-----7--|-(7)-------------|-11----9-----12--|-(12)----------------o||
 ||-----------------|-----------------|-----------------|----------------------||

[F#5] [D5] 
[4/4]  
 
 PM PM----| PM PM----|
 |-----------------|------------------|-----------------|--------------------|
 |-----------------|------------------|-----------------|--------------------|
 |-------6---------|------6-----------|-------7---------|-------7------------|
 |--4----6------4--|--(4)-4-----------|--0----7------0--|--(0)--7------------|
 |--4---(4)-----4--|--(4)-------------|--0---(0)-----0--|--(0)-(0)-----------|
 |--4---(4)--4--4--|--(4)-----4-4-4-4-|--0---(0)--0--0--|--(0)-------0-0-0-0-|

|
 
 | PM PM----| PM PM----|
 |-----------------|------------------|-----------------|--------------------|
 |-----------------|------------------|-----------------|--------------------|
 |-------6---------|------6-----------|-------2---------|-------2------------|
 |--4----6------4--|--(4)-4-----------|--0----0------0--|--(0)--0------------|
 |--4---(4)-----4--|--(4)-------------|--0---(0)-----0--|--(0)---------------|
 |--4---(4)--4--4--|--(4)-----4-4-4-4-|--0---(0)--0--0--|--(0)-------0-0-0-0-|

|
 
 |-----------------|------------------|-----------------|--------------------|
 |-----------------|------------------|-----------------|--------------------|
 |-18---16-----14--|-(14)-------------|-18---16-----13--|-(13)---------------|
 |--x----x------x--|--(x)-------------|--x----x------x--|--(x)---------------|
 |-16---14-----12--|-(12)-------------|-16---14-----11--|-(11)---------------|
 |-----------------|------------------|-----------------|--------------------|

[F#5] [D5]  
 
 PM PM----| PM PM----|
 |-----------------|------------------|-----------------|---------------------||
 |-----------------|------------------|-----------------|---------------------||
 |-------6---------|------6-----------|-------7---------|-------7-------------||
 |--4----6------4--|--(4)-4-----------|--0----7------0--|--(0)--7-------------||
 |--4---(4)-----4--|--(4)-------------|--0---(0)-----0--|--(0)-(0)------------||
 |--4---(4)--4--4--|--(4)-----4-4-4-4-|--0---(0)--0--0--|--(0)-------0-0-0-0--||

|
 
 | PM PM----| PM PM----|
 |-----------------|------------------|-----------------|---------------------||
 |-----------------|------------------|-----------------|---------------------||
 |-------6---------|------6-----------|-------2---------|-------2-------------||
 |--4----6------4--|--(4)-4-----------|--0----0------0--|--(0)--0-------------||
 |--4---(4)-----4--|--(4)-------------|--0---(0)-----0--|--(0)----------------||
 |--4---(4)--4--4--|--(4)-----4-4-4-4-|--0---(0)--0--0--|--(0)-------0-0-0-0--||

|
 
 |-----------------|------------------|-----------------|---------------------||
 |-----------------|------------------|-----------------|---------------------||
 |-18---16-----14--|-(14)-------------|-18---16-----19--|-(19)----------------||
 |--x----x------x--|--(x)-------------|--x----x------x--|--(x)----------------||
 |-16---14-----12--|-(12)-------------|-16---14-----17--|-(17)----------------||
 |-----------------|------------------|-----------------|---------------------||

Verse
$
N.C. N.C.
Gtrs I, II
 
 PM--------| PM--------|
 ||-------------------------------|------------------------------|
 ||o------------------------------|------------------------------|
 ||-------------------------------|------------------------------|
 ||---------------7-7-7-7-7-7-7-7-|--------------7-7-7-7-6-6-6-6-|
 ||o------------------------------|------------------------------|
 ||--4-4-4-4-4-4------------------|-4-4-4-4-4-4------------------|

|
| Gtr III
 
 | PM--------| PM--------|
 ||---------------5-5-5-5-5-5-5-5-|--------------5-5-5-5-4-4-4-4-|
 ||o------------------------------|------------------------------|
 ||-------------------------------|------------------------------|
 ||-------------------------------|------------------------------|
 ||o------------------------------|------------------------------|
 ||--4-4-4-4-4-4------------------|-4-4-4-4-4-4------------------|
 PM--------| PM----| PM----|
 |------------------------------|----------------------------------||
 |------------------------------|---------------------------------o||
 |------------------------------|----------------------------------||
 |--------------6-6-6-6-6-6-6-6-|---------4-4-4-4---------6-6-6-6--||
 |------------------------------|---------------------------------o||
 |-3-3-3-3-3-3------------------|-0-0-0-0---------3-3-3-3----------||

|
 
 | PM--------| PM----| PM----|
 |--------------4-4-4-4-4-4-4-4-|---------2-2-2-2---------4-4-4-4--||
 |------------------------------|---------------------------------o||
 |------------------------------|----------------------------------||
 |------------------------------|----------------------------------||
 |------------------------------|---------------------------------o||
 |-3-3-3-3-3-3------------------|-0-0-0-0---------3-3-3-3----------||

N.C. C#+5 N.C. C#+5 C#5
Gtr I
 
 PM--------| PM--------|
 ||-------------------------------|------------------------------|
 ||o------------------------------|------------------------------|
 ||-------------------------------|------------------------------|
 ||---------------7-7-7-7-7-7-7-7-|--------------7-7-7-7-6-6-6-6-|
 ||o------------------------------|------------------------------|
 ||--4-4-4-4-4-4------------------|-4-4-4-4-4-4------------------|

|
| Gtr II
 
 | PM--------| PM--------|
 ||-------------------------------|------------------------------|
 ||o------------------------------|------------------------------|
 ||-------------------------------|------------------------------|
 ||---------------7---------------|--------------7-------6-------|
 ||o--------------4---------------|--------------4-------4-------|
 ||--4-4-4-4-4-4------------------|-4-4-4-4-4-4------------------|

N.C. C#5 N.C. F#5/C# C#5
 
 PM--------| PM----| PM----|
 |------------------------------|----------------------------------||
 |------------------------------|---------------------------------o||
 |------------------------------|----------------------------------||
 |--------------6-6-6-6-6-6-6-6-|---------4-4-4-4---------6-6-6-6--||
 |------------------------------|---------------------------------o||
 |-3-3-3-3-3-3------------------|-0-0-0-0---------3-3-3-3----------||

|
 
 | PM--------| PM----| PM----|
 |------------------------------|----------------------------------||
 |------------------------------|---------------------------------o||
 |------------------------------|----------------------------------||
 |--------------6---------------|---------4---------------6--------||
 |--------------4---------------|---------4---------------4-------o||
 |-3-3-3-3-3-3------------------|-0-0-0-0---------3-3-3-3----------||

Pre-Chorus
N.C.
 
 PM----| PM----| PM----| PM----|
 ||----------------------|----------------------|
 ||o---------------------|----------------------|
 ||----------------------|------------4---------|
 ||--4---------6---------|--7-------------------|
 ||o---5-5-5-5---5-5-5-5-|----5-5-5-5---5-5-5-5-|
 ||----------------------|----------------------|

|
 
 | PM----| PM----| PM----| PM----|
 ||----------------------|----------------------|
 ||o---------------------|----------------------|
 ||----------------------|------------7---------|
 ||--7---------9---------|-11-------------------|
 ||o---9-9-9-9---9-9-9-9-|----9-9-9-9---9-9-9-9-|
 ||----------------------|----------------------|
 PM------| PM------| PM------| PM------|
 |------------------------------|--------------------------------|
 |------------------------------|--------------------------------|
 |------------------------------|----------------6---------------|
 |-6--------------7-------------|--9-----------------------------|
 |----7--7--7--7-----7--7--7--7-|-----7--7--7--7----7--7--7--7---|
 |------------------------------|--------------------------------|

|
 
 | PM------| PM------| PM------| PM------|
 |------------------------------|--------------------------------|
 |------------------------------|--------------------------------|
 |------------------------------|----------------9---------------|
 |-9-------------11-------------|-12-----------------------------|
 |---11-11-11-11----11-11-11-11-|----11-11-11-11---11-11-11-11---|
 |------------------------------|--------------------------------|

[G#] [F#] [A]  
 
 |---------------|----------------|
 |---------------|----------------|
 |-13---11---14--|-(14)-----------|
 |--x----x----x--|--(x)-----------|
 |-11----9---12--|-(12)-----------|
 |---------------|----------------|

|
 
 |---------------|----------------|
 |---------------|----------------|
 |---------------|----------------|
 |--0------------|--(0)-----------|
 |--0------------|--(0)----7h9p7--|
 |--0------------|--(0)-----------|

[G#] [A] [B]  
 
 |-------------------------|---------------------------||
 |-------------------------|--------------------------o||
 |-13-13-13-14-14-14-16-16-|-16-16-16-16-16-16-16-16---||
 |--x--x--x--x--x--x--x--x-|--x--x--x--x--x--x--x--x---||
 |-11-11-11-12-12-12-14-14-|-14-14-14-14-14-14-14-14--o||
 |-------------------------|---------------------------||

|
 
 |-------------------------|---------------------------||
 |-------------------------|--------------------------o||
 |-16-16-16-18-18-18-19-19-|-19-19-19-19-19-19-19-19---||
 |--x--x--x--x--x--x--x--x-|--x--x--x--x--x--x--x--x---||
 |-14-14-14-16-16-16-17-17-|-17-17-17-17-17-17-17-17--o||
 |-------------------------|---------------------------||

Chorus
D.S.
[F#5] [D5] 
[4/4] Gtr I
 
 PM PM----| PM PM----|

4x
 
 ||-----------------|-----------------|-----------------|--------------------||
 ||o----------------|-----------------|-----------------|-------------------o||
 ||--------6--------|-----6-----------|-------7---------|------7-------------||
 ||---4----6-----4--|-(4)-4-----------|--0----7------0--|--(0)-7-------------||
 ||o--4---(4)----4--|-(4)-------------|--0---(0)-----0--|--(0)--------------o||
 ||---4---(4)--4-4--|-(4)-----4-4-4-4-|--0---(0)--0--0--|--(0)-----0-0-0-0---||

|
| Gtr II
 
 | PM PM----| PM PM----|

| 4x
 
 ||-----------------|-----------------|-----------------|--------------------||
 ||o----------------|-----------------|-----------------|-------------------o||
 ||--------6--------|-----6-----------|-------2---------|------2-------------||
 ||---4----6-----4--|-(4)-4-----------|--0----0------0--|--(0)-0-------------||
 ||o--4---(4)----4--|-(4)-------------|--0---(0)-----0--|--(0)--------------o||
 ||---4---(4)--4-4--|-(4)-----4-4-4-4-|--0---(0)--0--0--|--(0)-----0-0-0-0---||

|
| Gtr III
| 4x
 
 ||-----------------|-----------------|-----------------|------------------||
 ||o----------------|-----------------|-----------------|-----------------o||
 ||--13---11-----9--|-(9)-------------|-13---11-----14--|-(14)-------------||
 ||---x----x-----x--|-(x)-------------|--x----x------x--|--(x)-------------||
 ||o-11----9-----7--|-(7)-------------|-11----9-----12--|-(12)------------o||
 ||-----------------|-----------------|-----------------|------------------||

Bridge 1
N.C.
 
 PM----| PM----------------------------|
 |---------------------|-----------------------|
 |---------------------|-----------------------|
 |---------------------|-----------------------|
 |-7---------6---------|-----------------------|
 |---------------------|-----------------------|
 |---4-4-4-4---4-4-4-4-|-4-4-4-4-4-4-4-4-4-4-4-|

|
 
 |---------------------|-----------------------|
 |---------------------|-----------------------|
 |---------------------|-----------------------|
 |---------------------|-----------------------|
 |---------------------|-----------------------|
 |---------------------|-----------------------|
 PM--| PM--| PM----| PM--| ~
 |-----------------------|------------------------|
 |-----------------------|------------------------|
 |-7-------6-------------|------------------------|
 |-----------------7-----|---6--------6s=7-(7)----|
 |-----------------------|------------------------|
 |---4-4-4---4-4-4---4-4-|-4---4-4-4--------------|

|
 
 |-----------------------|------------------------|
 |-----------------------|------------------------|
 |-----------------------|------------------------|
 |-----------------------|------------------------|
 |-----------------------|------------------------|
 |-----------------------|-----------12\----------|

N.C.
 
 PM----| PM-----------------------------|
 |---------------------|------------------------|
 |---------------------|------------------------|
 |---------------------|------------------------|
 |-7---------6---------|------------------------|
 |---------------------|------------------------|
 |---0-0-0-0---0-0-0-0-|-0-0-0--0-0-0-0-0-0-0-0-|

|
 
 | PM----| PM----|
 |---------------------|------------------------|
 |---------------------|-------10-------9-------|
 |---------------------|------------------------|
 |-4---------2---------|-0h7------0h6-----0h==2-|
 |---------------------|------------------------|
 |---0-0-0-0---0-0-0-0-|------------------------|

T
 
 |--------------------|-------------------|
 |--------------------|-------------------|
 |--------------------|-------------------|
 |--------------------|-------------------|
 |------9-----11------|-12s14-(14)--19----|
 |-0h7----0h9----0h11-|-------------------|

|
| T
 
 |--------------------|-------------------|
 |--------------------|-------------------|
 |-----11-----13------|-13s14-(14)--18----|
 |-0h7----0h9----0h11-|-------------------|
 |--------------------|-------------------|
 |--------------------|-------------------|

N.C.
 
 PM----| PM----------------------------|
 ||----------------------|-----------------------|
 ||o---------------------|-----------------------|
 ||----------------------|-----------------------|
 ||--7---------6---------|-----------------------|
 ||o---------------------|-----------------------|
 ||----4-4-4-4---4-4-4-4-|-4-4-4-4-4-4-4-4-4-4-4-|

|
 
 | PM----| PM----------------------------|
 ||----------------------|-----------------------|
 ||o---------------------|-----------------------|
 ||--6---------4---------|-----------------------|
 ||----------------------|-----------------------|
 ||o---------------------|-----------------------|
 ||----4-4-4-4---4-4-4-4-|-4-4-4-4-4-4-4-4-4-4-4-|
 PM--| PM--| PM----| PM--| ~
 |-----------------------|---------------------|
 |-----------------------|---------------------|
 |-7-------6-------------|---------------------|
 |-----------------7-----|---6-------6s7-(7)---|
 |-----------------------|---------------------|
 |---4-4-4---4-4-4---4-4-|-4---4-4-4-----------|

|
 
 | PM--| PM--| PM----| PM--| ~
 |-----------------------|---------------------|
 |-----------------------|---------------------|
 |-4---------------------|---------------------|
 |---------7-------4-----|-----------4h6-(6)---|
 |-----------------------|---7-----------------|
 |---4-4-4---4-4-4---4-4-|-4---4-4-4-----------|

N.C.
 
 PM----| PM-----------------------------|
 |---------------------|------------------------|
 |---------------------|------------------------|
 |---------------------|------------------------|
 |-7---------6---------|------------------------|
 |---------------------|------------------------|
 |---0-0-0-0---0-0-0-0-|-0-0-0--0-0-0-0-0-0-0-0-|

|
 
 | PM----| PM----|
 |---------------------|------------------------|
 |---------------------|-------10-------9-------|
 |---------------------|------------------------|
 |-4---------2---------|-0h7------0h6-----0h==2-|
 |---------------------|------------------------|
 |---0-0-0-0---0-0-0-0-|------------------------|

T
 
 |--------------------|--------------------||
 |--------------------|-------------------o||
 |--------------------|--------------------||
 |--------------------|--------------------||
 |------9-----11------|-11s12-(12)--19----o||
 |-0h7----0h9----0h11-|--------------------||

|
| T
 
 |--------------------|--------------------||
 |--------------------|-------------------o||
 |-----11-----13------|-13s14-(14)--18-----||
 |-0h7----0h9----0h11-|--------------------||
 |--------------------|-------------------o||
 |--------------------|--------------------||

Heafy's Solo
N.C.
 
 PM-----------| PM-----------------------------------------------------|
 |-------------------------------------------------|--------------------------------------|
 |-------------------------------------------------|--------------------------------------|
 |-------------------------------------------------|--------------------------------------|
 |--7-----------------------6----------------------|--------------------------------------|
 |-------------------------------------------------|--------------------------------------|
 |-------4-----4-4----4----------4-----4-4----4----|--4----4----4--4----4-----4-4-4-4-4-4-|

|
 
 | PM-----------| PM-----------------------------------------------------|
 |-------------------------------------------------|--------------------------------------|
 |-------------------------------------------------|--------------------------------------|
 |--6-----------------------4----------------------|--------------------------------------|
 |-------------------------------------------------|--------------------------------------|
 |-------------------------------------------------|--------------------------------------|
 |-------4-----4-4----4----------4-----4-4----4----|--4----4----4--4----4-----4-4-4-4-4-4-|

|
| Gtr III
| ~~
 
 |-------------------------------------------------|--------------------------------------|
 |-19p14------14-----------------------------------|--------------------------------------|
 |---------18------18p==14-18p14------14-----------|--------------------------------------|
 |---------------------------------18------18p==14-|-18p14--------14----------------------|
 |-------------------------------------------------|---------16------16p==14-16-----------|
 |-------------------------------------------------|--------------------------------------|
 PM--| PM--| PM----| PM--------| ~
 |---------------------------|-------------------------------|
 |---------------------------|-------------------------------|
 |--7-------6----------------|-------------------------------|
 |---------------------7-----|------6---------------6s7-(7)--|
 |---------------------------|-------------------------------|
 |----4-4-4-----4-4-4----4-4-|---4-----4----4----4-----------|

|
 
 | PM--| PM--| PM----| PM--------| ~
 |---------------------------|-------------------------------|
 |---------------------------|-------------------------------|
 |--4------------------------|-------------------------------|
 |----------7----------4-----|----------------------4s6-(6)--|
 |---------------------------|------7------------------------|
 |----4-4-4-----4-4-4----4-4-|---4-----4----4----4-----------|

|
 
 |---------------------------|-------------------------------|
 |---------------------------|-------------------------------|
 |---------------------------|-------------------------------|
 |---------------------------|-------------------------------|
 |-14---------/19-----16-----|-(16)---14h16p==14s==12--------|
 |---------------------------|-------------------------------|

N.C.
 
 PM-----------| PM-----------------------------------------------------|
 |-------------------------------------------------|--------------------------------------|
 |-------------------------------------------------|--------------------------------------|
 |-------------------------------------------------|--------------------------------------|
 |--7-----------------------6----------------------|--------------------------------------|
 |-------------------------------------------------|--------------------------------------|
 |-------0-----0-0----0----------0-----0-0----0----|--0----0----0--0----0-----0-0-0-0-0-0-|

|
 
 | PM-----------| PM-----------|
 |-------------------------------------------------|--------------------------------------|
 |-------------------------------------------------|--------------10--------------9-------|
 |-------------------------------------------------|--------------------------------------|
 |--4-----------------------2----------------------|--0h===7------------0h====6-----0h==2-|
 |-------------------------------------------------|--------------------------------------|
 |-------0-----0-0----0----------0-----0-0----0----|--------------------------------------|

|
| ~~
 
 |-------------------------------------------------|--------------------------------------|
 |-19p15------15-----------------------------------|--------------------------------------|
 |---------18------18p==14-18p14------14-----------|--------------------------------------|
 |---------------------------------18------18p==16-|-18p16--------16----------------------|
 |-------------------------------------------------|---------17------17p==16-17-----------|
 |-------------------------------------------------|--------------------------------------|

T
 
 |--------------------------|------------------------|
 |--------------------------|------------------------|
 |--------------------------|------------------------|
 |--------------------------|------------------------|
 |----------9------11-------|--12s=14-(14)--19-------|
 |--0h===7----0h=9-----0h11-|------------------------|

|
| T
 
 |--------------------------|------------------------|
 |--------------------------|------------------------|
 |---------11------13-------|--13s=14-(14)--18-------|
 |--0h===7----0h=9-----0h11-|------------------------|
 |--------------------------|------------------------|
 |--------------------------|------------------------|

|
| ~~~~~~~~~~~~
 
 |-14------14---17----16----|-(16)-------------------|
 |-17b19--------------------|----------14-------15---|
 |--------------------------|------------------------|
 |--------------------------|------------------------|
 |--------------------------|------------------------|
 |--------------------------|------------------------|

N.C.
 
 PM----| PM---------------------------------------------|
 |----------------------------|---------------------------------------|
 |----------------------------|---------------------------------------|
 |----------------------------|---------------------------------------|
 |--7-------------6-----------|---------------------------------------|
 |----------------------------|---------------------------------------|
 |-------4-4-4-4-----4--4-4-4-|---4--4-4-4-4--4-----4-4------4-4----4-|

|
 
 | PM----| PM---------------------------------------------|
 |----------------------------|---------------------------------------|
 |----------------------------|---------------------------------------|
 |--6-------------4-----------|---------------------------------------|
 |----------------------------|---------------------------------------|
 |----------------------------|---------------------------------------|
 |-------4-4-4-4-----4--4-4-4-|---4--4-4-4-4--4-----4-4------4-4----4-|

|
| ~~
 
 |----------------------------|---------------------------------------|
 |-15b17r========15-14-14-----|-(14)---------14pb15r====(14)-----12---|
 |----------------------------|---------------------------------------|
 |----------------------------|---------------------------------------|
 |----------------------------|---------------------------------------|
 |----------------------------|---------------------------------------|
 PM--| PM--| PM----| PM---| ~~
 |----------------------------|-----------------------------|
 |----------------------------|-----------------------------|
 |--7-------6-----------------|-----------------------------|
 |---------------------7------|------6----------6s=7-(7)----|
 |----------------------------|-----------------------------|
 |----4-4-4----4-4--4-----4-4-|---4-----4--4-4--------------|

|
 
 | PM--| PM--| PM----| PM---| ~~
 |----------------------------|-----------------------------|
 |----------------------------|-----------------------------|
 |--4-------------------------|-----------------------------|
 |----------7----------4------|-----------------4s=6-(6)----|
 |----------------------------|------7----------------------|
 |----4-4-4----4-4--4-----4-4-|---4-----4--4-4--------------|

|
| ~~
 
 |----------------------------|--------------------------14-|
 |----------------------------|----------------14-15-17-----|
 |-13---------14p==13---------|--------14-16----------------|
 |--------------------14S16---|-(16)------------------------|
 |----------------------------|-----------------------------|
 |----------------------------|-----------------------------|

N.C.
 
 PM---------| PM----------------
 |-------------------------------------------------|
 |-------------------------------------------------|
 |-------------------------------------------------|
 |--7-----------------------6----------------------|
 |-------------------------------------------------|
 |--------0-----0--0--0-----------0-----0--0--0----|

|
 
 | PM---------| PM---------|
 |-------------------------------------------------|
 |-------------------------------------------------|
 |-------------------------------------------------|
 |--4-----------------------2----------------------|
 |-------------------------------------------------|
 |--------0-----0--0--0-----------0-----0--0--0----|

|
 
 |----14-14-14-17-14-14-14-19-14-14-14-14----14-14-|
 |-17-------------------------------------17-------|
 |-------------------------------------------------|
 |-------------------------------------------------|
 |-------------------------------------------------|
 |-------------------------------------------------|
 -------------------------------------------|
 |--------------------------------------------------|
 |--------------------------------------------------|
 |--------------------------------------------------|
 |--------------------------------------------------|
 |--------------------------------------------------|
 |--0-----0--0--0-----0-----0--0--0-----0--0--0-----|

|
 
 |--------------------------------------------------|
 |-------------10-----------------9-----------------|
 |--------------------------------------------------|
 |--0h====7-----------0h====6-----------0h====2-----|
 |--------------------------------------------------|
 |--------------------------------------------------|

|
 
 |-17-14-14-14-19-14-14-14----14-14-14-17-19-14-14--|
 |-------------------------17-----------------------|
 |--------------------------------------------------|
 |--------------------------------------------------|
 |--------------------------------------------------|
 |--------------------------------------------------|

N.C.
 
 |--------------------------------------|
 |--------------------------------------|
 |--------------------------------------|
 |--------------------------------------|
 |----------9---------11----------------|
 |--0h===7----0h=9-----------0h===11----|

|
 
 |--------------------------------------|
 |--------------------------------------|
 |---------11---------13----------------|
 |--0h===7----0h=9-----------0h===11----|
 |--------------------------------------|
 |--------------------------------------|

|
 
 | ~~~~~ PM------------|
 |--------------------------------------|
 |-17b19--------------------------------|
 |--------------------------------16-18-|
 |-----------------------16-18-19-------|
 |--------------16-17-19----------------|
 |--------------------------------------|

T
 
 |---------------------------------------------------||
 |---------------------------------------------------||
 |---------------------------------------------------||
 |---------------------------------------------------||
 |-12s===14----(14)----------19----------------------||
 |---------------------------------------------------||

|
| T
 
 |---------------------------------------------------||
 |---------------------------------------------------||
 |-13s===14----(14)----------18----------------------||
 |---------------------------------------------------||
 |---------------------------------------------------||
 |---------------------------------------------------||

|
 
 | PM---------| PM------|
 |---------------------------------------------------||
 |------------------------------------------------17-||
 |------------------16-18-19-------------16-18-19----||
 |-------16-18--19--------------16-18-19-------------||
 |-17-19---------------------19----------------------||
 |---------------------------------------------------||

Bridge 2
F# G# A G# N.C.
TP TP TP TP PM| PM| PM----| PM PM PM
 
 |---------------|------------|-------------------|--------------------|
 |---------------|------------|-10-----9----------|-----10---9---------|
 |---------------|------------|---------------9---|---------------9----|
 |---------------|------------|----7-7---7-7----7-|-7-7----7---7----7--|
 |---------------|------------|-------------------|--------------------|
 |--4---------6--|--7----6----|-------------------|--------------------|

|
| TP TP TP TP PM| PM| PM----| PM PM PM
 
 |---------------|------------|-------------------|--------------------|
 |---------------|------------|-------------------|--------------------|
 |---------------|------------|-11-----9----------|-----11---9---------|
 |---------------|------------|----7-7---7-7-11-7-|-7-7----7---7-11-7--|
 |---------------|------------|-------------------|--------------------|
 |--7---------9--|-11----9----|-------------------|--------------------|

|
| ~~~~~
 
 |---------------|------------|-------------------|--------------------|
 |-17b19---------|------------|-------------------|--------------------|
 |---------------|------------|-------------------|--------------------|
 |---------------|------------|-------------------|--------------------|
 |---------------|------------|-------------------|--------------------|
 |---------------|------------|-------------------|--------------------|

F# G# A G# N.C.
TP TP TP TP
 
 |-----------|------------|------------------|---------------|
 |-----------|------------|------------------|---------------|
 |-----------|------------|------------------|---------------|
 |-----------|------------|------------------|---------11----|
 |-----------|------------|------------------|---------------|
 |-4------6--|--7----6----|-0h6h7-0h7h11-0h7-|-0h7h9-0-------|

|
| TP TP TP TP
 
 |-----------|------------|------------------|---------------|
 |-----------|------------|------------------|---------10----|
 |-----------|------------|------------------|---------------|
 |-----------|------------|-0h6h7-0h7h11-0h7-|-0h7h9-0-------|
 |-----------|------------|------------------|---------------|
 |-7------9--|-11----9----|------------------|---------------|

F# G# A G# N.C.
TP TP TP TP PM| PM| PM----| PM PM PM
 
 |-----------|------------|-------------------|--------------------|
 |-----------|------------|-10-----9----------|-----10---9---------|
 |-----------|------------|---------------9---|---------------9----|
 |-----------|------------|----7-7---7-7----7-|-7-7----7---7----7--|
 |-----------|------------|-------------------|--------------------|
 |-4------6--|--7----6----|-------------------|--------------------|

|
| TP TP TP TP PM| PM| PM----| PM PM PM
 
 |-----------|------------|-------------------|--------------------|
 |-----------|------------|-------------------|--------------------|
 |-----------|------------|-11-----9----------|-----11---9---------|
 |-----------|------------|----7-7---7-7-11-7-|-7-7----7---7-11-7--|
 |-----------|------------|-------------------|--------------------|
 |-7------9--|-11----9----|-------------------|--------------------|

F# G# A G# N.C.
TP TP TP TP
 
 |-----------|------------|------------------|---------------||
 |-----------|------------|------------------|---------------||
 |-----------|------------|------------------|---------------||
 |-----------|------------|------------------|---------11----||
 |-----------|------------|------------------|---------------||
 |-4------6--|--7----6----|-0h6h7-0h7h11-0h7-|-0h7h9-0-------||

|
| TP TP TP TP
 
 |-----------|------------|------------------|---------------||
 |-----------|------------|------------------|---------10----||
 |-----------|------------|------------------|---------------||
 |-----------|------------|-0h6h7-0h7h11-0h7-|-0h7h9-0-------||
 |-----------|------------|------------------|---------------||
 |-7------9--|-11----9----|------------------|---------------||

Duel
N.C.
 
 ||----------------------------|---------------------------|
 ||o---------------------------|---------------------------|
 ||----------------------------|---------------------------|
 ||-----------14-(14)-------12-|-(12)----------11----------|
 ||o-12-11-12---------12-11----|------12-11-12----12-11-12-|
 ||----------------------------|---------------------------|

|
 
 ||----------------------------|---------------------------|
 ||o---------------------------|---------------------------|
 ||----------------------------|---------------------------|
 ||-----------11-(11)--------9-|--(9)-----------7----------|
 ||o--9--7--9----------9--7----|-------9--7--9-----9--7--9-|
 ||----------------------------|---------------------------|
 |-------------------------|-------------------------|
 |-------------------------|-------------------------|
 |-14-13-11----13-11-------|-11----------------------|
 |----------14-------14-12-|----14-12-11-14-12-11----|
 |-------------------------|----------------------14-|
 |-------------------------|-------------------------|

|
 
 |-------------------------|-------------------------|
 |-------------------------|-------------------------|
 |-11--9--7-----9--7-------|--7----------------------|
 |----------11-------11--9-|----11--9--7-11--9--7----|
 |-------------------------|----------------------11-|
 |-------------------------|-------------------------|
 |---------------------|-------------------|
 |---------------------|-------------------|
 |---------------------|-------------------|
 |-------11-(11)-----9-|-(9)-------7-------|
 |-9-7-9---------9-7---|-----9-7-9---9-7-9-|
 |---------------------|-------------------|

|
 
 |---------------------|-------------------|
 |---------------------|-------------------|
 |---------------------|-------------------|
 |--------7--(7)-----6-|-(6)-------4-------|
 |-5-4-5---------5-4---|-----5-4-5---5-4-5-|
 |---------------------|-------------------|
 |--------------------|----------------------||
 |--------------------|---------------------o||
 |-11-9-7----9-7------|-7--------------------||
 |--------11-----11-9-|---11-9-7-11-9-7------||
 |--------------------|-----------------11--o||
 |--------------------|----------------------||

|
 
 |--------------------|----------------------||
 |--------------------|---------------------o||
 |--7-6-4----6-4------|-4--------------------||
 |---------7------7-6-|----7-6-4--7-6-4------||
 |--------------------|------------------7--o||
 |--------------------|----------------------||

Pre-Chorus
N.C.
 
 PM----| PM----| PM----| PM----|
 ||----------------------|----------------------|
 ||o---------------------|----------------------|
 ||----------------------|------------4---------|
 ||--4---------6---------|--7-------------------|
 ||o---5-5-5-5---5-5-5-5-|----5-5-5-5---5-5-5-5-|
 ||----------------------|----------------------|

|
 
 | PM----| PM----| PM----| PM----|
 ||----------------------|----------------------|
 ||o---------------------|----------------------|
 ||----------------------|------------7---------|
 ||--7---------9---------|-11-------------------|
 ||o---9-9-9-9---9-9-9-9-|----9-9-9-9---9-9-9-9-|
 ||----------------------|----------------------|
 PM------| PM------| PM------| PM------|
 |------------------------------|--------------------------------|
 |------------------------------|--------------------------------|
 |------------------------------|----------------6---------------|
 |-6--------------7-------------|--9-----------------------------|
 |----7--7--7--7-----7--7--7--7-|-----7--7--7--7----7--7--7--7---|
 |------------------------------|--------------------------------|

|
 
 | PM------| PM------| PM------| PM------|
 |------------------------------|--------------------------------|
 |------------------------------|--------------------------------|
 |------------------------------|----------------9---------------|
 |-9-------------11-------------|-12-----------------------------|
 |---11-11-11-11----11-11-11-11-|----11-11-11-11---11-11-11-11---|
 |------------------------------|--------------------------------|

[G#] [F#] [A]  
 
 |---------------|----------------|
 |---------------|----------------|
 |-13---11---14--|-(14)-----------|
 |--x----x----x--|--(x)-----------|
 |-11----9---12--|-(12)-----------|
 |---------------|----------------|

|
 
 |---------------|----------------|
 |---------------|----------------|
 |---------------|----------------|
 |--0------------|--(0)-----------|
 |--0------------|--(0)----7h9p7--|
 |--0------------|--(0)-----------|

[G#] [A] [B]  
 
 |-------------------------|---------------------------||
 |-------------------------|--------------------------o||
 |-13-13-13-14-14-14-16-16-|-16-16-16-16-16-16-16-16---||
 |--x--x--x--x--x--x--x--x-|--x--x--x--x--x--x--x--x---||
 |-11-11-11-12-12-12-14-14-|-14-14-14-14-14-14-14-14--o||
 |-------------------------|---------------------------||

|
 
 |-------------------------|---------------------------||
 |-------------------------|--------------------------o||
 |-16-16-16-18-18-18-19-19-|-19-19-19-19-19-19-19-19---||
 |--x--x--x--x--x--x--x--x-|--x--x--x--x--x--x--x--x---||
 |-14-14-14-16-16-16-17-17-|-17-17-17-17-17-17-17-17--o||
 |-------------------------|---------------------------||

Outro Chorus
[F#5] [D5] 
[4/4] Gtr I
 
 PM PM----| PM PM----|

8x
 
 ||-----------------|-----------------|-----------------|----------------------||
 ||o----------------|-----------------|-----------------|---------------------o||
 ||--------6--------|-----6-----------|-------7---------|-------7--------------||
 ||---4----6-----4--|-(4)-4-----------|--0----7------0--|--(0)--7--------------||
 ||o--4---(4)----4--|-(4)-------------|--0---(0)-----0--|--(0)-(0)------------o||
 ||---4---(4)--4-4--|-(4)-----4-4-4-4-|--0---(0)--0--0--|--(0)-------0-0-0-0---||

|
| Gtr II
 
 | PM PM----| PM PM----|

| 8x
 
 ||-----------------|-----------------|-----------------|----------------------||
 ||o----------------|-----------------|-----------------|---------------------o||
 ||--------6--------|-----6-----------|-------2---------|-------2--------------||
 ||---4----6-----4--|-(4)-4-----------|--0----0------0--|--(0)--0--------------||
 ||o--4---(4)----4--|-(4)-------------|--0---(0)-----0--|--(0)----------------o||
 ||---4---(4)--4-4--|-(4)-----4-4-4-4-|--0---(0)--0--0--|--(0)-------0-0-0-0---||

|
| Gtr III
| 8x
 
 ||-----------------|-----------------|-----------------|----------------------||
 ||o----------------|-----------------|-----------------|---------------------o||
 ||--13---11-----9--|-(9)-------------|-13---11-----14--|-(14)-----------------||
 ||---x----x-----x--|-(x)-------------|--x----x------x--|--(x)-----------------||
 ||o-11----9-----7--|-(7)-------------|-11----9-----12--|-(12)----------------o||
 ||-----------------|-----------------|-----------------|----------------------||

[A/D]  
 
 |----------|------------|------------|--------*|
 |----------|------------|------------|--------*|
 |----------|------------|------------|--------*|
 |-7--------|-(7)--------|-(7)--------|-(7)----*|
 |-4--------|-(4)--------|-(4)--------|-(4)----*|
 |-0--------|-(0)--------|-(0)--------|-(0)----*|

|
 
 |----------|------------|------------|--------*|
 |----------|------------|------------|--------*|
 |-6--------|-(6)--------|-(6)--------|-(6)----*|
 |-7--------|-(7)--------|-(7)--------|-(7)----*|
 |-4--------|-(4)--------|-(4)--------|-(4)----*|
 |-0--------|-(0)--------|-(0)--------|-(0)----*|


Important: The song above is NOT stored on the Chordie server. The original song is hosted at www.guitaretab.com. Chordie works as a search engine and provides on-the-fly formatting. Chordie does not index songs against artists'/composers' will. To remove this song please click here.

Text color:
Chord color:
Chord grids: 
Font size:    
Page size: 

A A/D B D5 F# F#5 G#
Rate #1 of 3 versions

Jango Player

Login - add to songbook

SHARE PAGE  




You need to log in to post comments