Guitar Tabs, Chords and Lyrics
Major upgrade!! After one year development the new version of Chordie is now online! Please give feedback.


A Gunshot to the Head of Trepidation  Trivium

Gtr I (D A D G B E) - \'Left Channel\'
Gtr II (D A D G B E) - \'Right Channel\'
Gtr III (D A D G B E) - \'Neutral Overdub\'
Intro
Q=117
[Dm/F] [C#m/E] [Em/G] [F/A]  
[4/4] Gtr I
W W W W
 
 |----------|----------|----------|-------|
 |----------|----------|----------|-------|
 |-7--------|-6--------|-9--------|-10----|
 |----------|----------|----------|-------|
 |-5--------|-4--------|-7--------|--8----|
 |----------|----------|----------|-------|

|
| Gtr II
| W W W W
 
 |----------|----------|----------|-------|
 |----------|----------|----------|-------|
 |----------|----------|----------|-------|
 |-3--------|-2--------|-5--------|--7----|
 |----------|----------|----------|-------|
 |-3--------|-2--------|-5--------|--7----|

[Dm/F]W [C#m/E]W [Gm/Bb] W [F/A] H [D5] Q Q
 
 |----------|----------|-----------|-----------------------|
 |----------|----------|-----------|-----------------------|
 |-7--------|-6--------|-12--------|-10--------------------|
 |----------|----------|-----------|-----------------------|
 |-5--------|-4--------|-10--------|--8----/12\\--/12\\----|
 |----------|----------|-----------|-------/12\\--/12\\----|

|
| W W W H Q Q
 
 |----------|----------|-----------|-----------------------|
 |----------|----------|-----------|-----------------------|
 |----------|----------|-----------|-----------------------|
 |-3--------|-2--------|-/8--------|--7--------------------|
 |----------|----------|-----------|-------/12\\--/12\\----|
 |-3--------|-2--------|-/8--------|--7----/12\\--/12\\----|

Verse
$
$$
PM----| PM----| PM----| PM--------------|
|-3-| |-3-| |-3-| |-3-| |-3-| |-3-|
E S S S E E E S S S E E E S S S E E E S S S S S S S S S
||--------------------------|----------------------------------|
||o-------------------------|----------------------------------|
||--7---------7-6---------6-|-9---------9-10-------------------|
||--------------------------|----------------------------------|
||o-5-0-0-0-0-5-4-0-0-0-0-4-|-7-0-0-0-0-7--8-0-0-0-0-0-0-0-0-0-|
||----0-0-0-0-----0-0-0-0---|---0-0-0-0------0-0-0-0-0-0-0-0-0-|
|
| PM----| PM----| PM----| PM--------------|
| |-3-| |-3-| |-3-| |-3-| |-3-| |-3-|
| E S S S E E E S S S E E E S S S E E E S S S S S S S S S
||--------------------------|----------------------------------|
||o-------------------------|----------------------------------|
||--------------------------|----------------------------------|
||--3---------3-2---------2-|-5---------5--7-------------------|
||o---0-0-0-0-----0-0-0-0---|---0-0-0-0------0-0-0-0-0-0-0-0-0-|
||--3-0-0-0-0-3-2-0-0-0-0-2-|-5-0-0-0-0-5--7-0-0-0-0-0-0-0-0-0-|
PM----| PM----| PM------| TP TP
|-3-| |-3-| |-3-----|
E S S S E E E S S S E E E S S S E E Q Q
|-------------------------|----------------------||
|-------------------------|---------------------o||
|-7---------7-6---------6-|-9---------9-12--10---||
|-------------------------|----------------------||
|-5-0-0-0-0-5-4-0-0-0-0-4-|-7-0-0-0-0-7-10---8--o||
|---0-0-0-0-----0-0-0-0---|---0-0-0-0------------||
|
| PM----| PM----| PM------| TP TP
| |-3-| |-3-| |-3-----|
| E S S S E E E S S S E E E S S S E E Q Q
|-------------------------|----------------------||
|-------------------------|---------------------o||
|-------------------------|----------------------||
|-3---------3-2---------2-|-5---------5--8---7---||
|---0-0-0-0-----0-0-0-0---|---0-0-0-0-----------o||
|-3-0-0-0-0-3-2-0-0-0-0-2-|-5-0-0-0-0-5--8---7---||
Post-Verse
N.C.
TP TP TP TP TP TP TP TP TP TP TP TP TPTP TPTP
||-------------------------|------------------------||
||o------------------------|-----------------------o||
||-------------------------|------------------------||
||-------------------------|------------------------||
||o----8--7--8-----8--7--8-|-----8--7--8--8-5--7-4-o||
||--0-----------7----------|--8---------------------||
|
| TP TP TP TP TP TP TP TP TP TP TP TP TPTP TPTP
| E E E E E E E E E E E E E E E E
||-------------------------|------------------------||
||o------------------------|-----------------------o||
||-------------------------|------------------------||
||-------------------------|------------------------||
||o---12-10-12----12-10-12-|----12-10-12-12-8-10-7-o||
||--0----------10----------|-12---------------------||
D.S.
||-------------------------|--------------------------||
||o------------------------|---------------------(8)-o||
||-------------------------|--------------------------||
||-------------------------|--------------------------||
||o----8--7--8-----8--7--8-|-----8--7--8--8-5--7--4--o||
||--0-----------7----------|--8-----------------------||
|
| E E E E E E E E E E E E E E E E
||-------------------------|--------------------------||
||o------------------------|---------------------(5)-o||
||-------------------------|--------------------------||
||-------------------------|--------------------------||
||o---12-10-12----12-10-12-|----12-10-12-12-8-10--7--o||
||--0----------10----------|-12-----------------------||
Bridge
~~ ~
|-3--| |-3--| |-3--|
E S S S E Q a E E E E S S S E Q E E E E S S S E Q a E Q
||--------------------------|----------------------------|------------------------|
||o-10-8-10-8-------------8-|-10-8-10-8-------11b13-11-8-|-10-8-10-8--------------|
||------------10-7--7h9-7---|-----------10-9-------------|-----------10-7--7h9-7--|
||--------------------------|----------------------------|------------------------|
||o-------------------------|----------------------------|------------------------|
||--------------------------|----------------------------|------------------------|
|
| ~~ ~
| |-3--| |-3--| |-3--|
| E S S S E Q a E E E E S S S E Q E E E E S S S E Q a E Q
||--------------------------|----------------------------|------------------------|
||o--6-5--6-5-------------5-|--6-5--6-5--------8b10--8-5-|--6-5--6-5--------------|
||-------------7------------|------------7-5-------------|------------7-----------|
||---------------7--7h8-7---|----------------------------|--------------7--7h8-7--|
||o-------------------------|----------------------------|------------------------|
||--------------------------|----------------------------|------------------------|
|
| Gtr III
| W W W
||--------------------------|----------------------------|------------------------|
||o-------------------------|----------------------------|------------------------|
||--------------------------|----------------------------|------------------------|
||---0----------------------|--5-------------------------|--7---------------------|
||o--0----------------------|--5-------------------------|--7---------------------|
||---0----------------------|--5-------------------------|--7---------------------|
D.S.S.
|-3--| |-3--| |-3--| |-3--| |--3--| |--3--| |--3--|
S S S S S S S S S S S S S S S S S S S S S E 4x
|------------------------------------------------------------------||
|-10-8---------8-10-8---------8-11-10----------10-13-11-10--------o||
|------10-9-10--------10-9-10---------12-10-12-------------12b14---||
|------------------------------------------------------------------||
|-----------------------------------------------------------------o||
|------------------------------------------------------------------||
|
| ~~~~~
| |-3--| |-3--| |-3--| |-3--| |--3--| |--3--| |--3--|
| S S S S S S S S S S S S S S S S S S S S S E 4x
|------------------------------------------------------------------||
|--6-5---------5--6-5---------5--8--6-----------6-10--8-----------o||
|-------7-5--7---------7-5--7----------9--7--9----------10--7b9----||
|------------------------------------------------------------------||
|-----------------------------------------------------------------o||
|------------------------------------------------------------------||
|
| H Q Q 4x
|------------------------------------------------------------------||
|-----------------------------------------------------------------o||
|------------------------------------------------------------------||
|--8-----------------------------3-----------------2---------------||
|--8-----------------------------3-----------------3--------------o||
|--8-----------------------------3-----------------2---------------||
Chorus
Q=147
Gtrs I, II
PM----------| PM----|
Q E Q. E E +E E E E E E E E Q E Q. E E +E E Q E E E E 4x
||----------------|-------------------|---------------|--------------------||
||o---------------|-------------------|---------------|-------------------o||
||--3----5------7-|-(7)---------------|-3----5--------|--------------------||
||--3----5------7-|-(7)---------------|-3----5------5-|-(5)-7-3------------||
||o-1----3------5-|-(5)-0-0-0-0-0-0-0-|-1----3------5-|-(5)-7-3--3-3-3-3--o||
||----------------|-----0-0-0-0-0-0-0-|-------------5-|-(5)-7-3--3-3-3-3---||
Breakdown
Gtr I
W +H E E E E
|-------------------------|-------------------------|
|-------------------------|-------------------------|
|-------------------------|-------------------------|
|-0-----------------------|--(0)------------3-4-5-0-|
|-0-----------------------|--(0)------------3-4-5-0-|
|-0-----------------------|--(0)------------3-4-5-0-|
|
| Gtr II
| PM| PM| PM| ~~~~~~~~~~~PM| PM|
| E S S E S S E S S E E +E S S E S S E E E E
|-------------------------|-------------------------|
|-------------------------|-------------------------|
|-------------------------|-------------------------|
|-------------------------|-------------------------|
|-------5-----3-----6-[5]-|-([5])-----5-----3-4-5---|
|-0-0-0---0-0---0-0-------|-------0-0---0-0-------0-|
+W +H E E E E
|---------------------------|---------------------------|
|---------------------------|---------------------------|
|---------------------------|---------------------------|
|-(0)-----------------------|--(0)------------3-4-5-0---|
|-(0)-----------------------|--(0)------------3-4-5-0---|
|-(0)-----------------------|--(0)------------3-4-5-0---|
|
| PM| PM| PM| ~~~~~~~~~~~PM| PM|
| +E S S E S S E S S E E +E S S E S S E E E E
|---------------------------|---------------------------|
|---------------------------|---------------------------|
|---------------------------|---------------------------|
|---------------------------|---------------------------|
|---------5-----3-----6-[5]-|-([5])-----5-----3-4-5-----|
|-(0)-0-0---0-0---0-0-------|-------0-0---0-0-------0---|
+W +H E E E E
|---------------------------|-------------------------|
|---------------------------|-------------------------|
|---------------------------|-----------------------7-|
|-(0)-----------------------|--(0)------------3-4-5-7-|
|-(0)-----------------------|--(0)------------3-4-5-5-|
|-(0)-----------------------|--(0)------------3-4-5---|
|
| PM| PM| PM| ~~~~~~~~~~~PM| PM|
| +E S S E S S E S S E E +E S S E S S E E E E
|---------------------------|-------------------------|
|---------------------------|-------------------------|
|---------------------------|-----------------------7-|
|---------------------------|-----------------------7-|
|---------5-----3-----6-[5]-|-([5])-----5-----3-4-5-5-|
|-(0)-0-0---0-0---0-0-------|-------0-0---0-0---------|
+E E E Q E E E +E E E E E E E E
|------------------|--------------------|
|------------------|--------------------|
|-(7)-7---5--5---4-|-(4)-4--------------|
|-(7)-7---5--5---5-|-(5)-5--------------|
|-(5)-5---3--3---2-|-(2)-2--------------|
|------------------|---------2-3-4-5-0--|
|
| +E E E Q E E E +E E E E E E E E
|------------------|--------------------|
|------------------|--------------------|
|-(7)-7---5--5---4-|-(4)-4--------------|
|-(7)-7---5--5---5-|-(5)-5--------------|
|-(5)-5---3--3---2-|-(2)-2-----------0--|
|------------------|---------2-3-4-5-0--|
Guitar Solo (Cory)
~~
|-3--|
S S S S S S S S S S S S S S S S S S S S E E S S S Q.
|-18p=15----------------------------------15h17p=14-|--17---14-------14s10---8-------------|
|--------16p15----------------------15h16-----------|----------15--------------10-7--------|
|--------------15----------------15-----------------|-------------14----------------7------|
|-----------------17----------17--------------------|--------------------------------------|
|--------------------18p17h18-----------------------|--------------------------------------|
|---------------------------------------------------|--------------------------------------|
|
| PM| PM| PM| ~~~~~~~~~~~~~~ PM| PM|
| +E S S E S S E S S E E +E S S E S S E E E E
|---------------------------------------------------|--------------------------------------|
|---------------------------------------------------|--------------------------------------|
|---------------------------------------------------|--------------------------------------|
|---------------------------------------------------|--------------------------------------|
|-(0)-----------5-----------3-----------6----[5]----|-([5])-----------5------3------4--5-0-|
|-(0)-----0--0--------0--0--------0--0--------------|-----------0--0-----0-0-3------4--5-0-|
|--3--| |---3---| |------5-------|
|--3--|
S S S S S S S S S S S S S S S S S S S S S T T S S S S S
S S S S S S E
|-----------------------------------------------|-------------8------------8---10---11-13-11----------10-11-13b15--|
|----------------------------7----------7--8-10-|---8---10-11---11-10-8-11-------------------13-10-13--------------|
|--------7---------7-10-7-10---10-7-10----------|------------------------------------------------------------------|
|--7--10---10-7-10------------------------------|------------------------------------------------------------------|
|-----------------------------------------------|------------------------------------------------------------------|
|-----------------------------------------------|------------------------------------------------------------------|
|
| PM| PM| PM| ~~~~~~~~~~~~~~~~ PM| PM---|
| +E S S E S S E S S E E +E S S E S S E E E E
|-----------------------------------------------|------------------------------------------------------------------|
|-----------------------------------------------|------------------------------------------------------------------|
|-----------------------------------------------|------------------------------------------------------------------|
|-----------------------------------------------|------------------------------------------------------------------|
|-(0)---------5---------3---------6----[5]------|-([5])---------------5-----------------3-----4-----5--------0-----|
|-(0)----0--0------0--0------0--0---------------|-------------0--0-----------0----0-----3-----4-----5--------0-----|
|--3---| |---3---| |--3--| |---3---| |--3--| |---3---| |--3--| |--3---|
S S S S S S S S S S S S S S S S S S S S S S S S
|-13--11-10------------10-11-13-15-13---12----------12-13---15-17-15-14-----------|
|-----------13-11---13---------------------15-13-15---------------------17--15-17-|
|---------------------------------------------------------------------------------|
|---------------------------------------------------------------------------------|
|---------------------------------------------------------------------------------|
|---------------------------------------------------------------------------------|
|
| PM---| PM---| PM---| ~~~~~~~~~~
| +E S S E S S E S S E E
|---------------------------------------------------------------------------------|
|---------------------------------------------------------------------------------|
|---------------------------------------------------------------------------------|
|---------------------------------------------------------------------------------|
|-(0)-------------------5-------------------3-------------------6-------[5]-------|
|-(0)--------0----0--------------0----0--------------0----0-----------------------|
D5 C5
~~~~~~~ ~~~
|---3---| |---3---| |--3--| |---3---|
S S S S S S S S S S S S Q. E +Q. Q E E E
+Q. H E
|--14---15-17-18-16---15----------15-16---18--------------------|---------------18-20-20b22==|=(20)r-----20b22----------|
|------------------------18-16-18------------19b21.5-----19b22==|=(19)-----19r---------------|--------------------------|
|---------------------------------------------------------------|----------------------------|-----------------------10-|
|---------------------------------------------------------------|----------------------------|--------------------------|
|---------------------------------------------------------------|----------------------------|--------------------------|
|---------------------------------------------------------------|----------------------------|--------------------------|
|
|~~~~~~~ PM---| PM---|
| +E S S E S S E E E E +E E E Q E E E
|---------------------------------------------------------------|----------------------------|--------------------------|
|---------------------------------------------------------------|----------------------------|--------------------------|
|---------------------------------------------------------7-----|--(7)-7----5----5-----4-----|--(4)--4----------------7-|
|---------------------------------------------------------7-----|--(7)-7----5----5-----5-----|--(5)--5----------------7-|
|-([5])-------------------5-------------------3------4-5--5-----|--(5)-5----3----3-----2-----|--(2)--2----------------5-|
|--------------0----0--------------0----0-----------------------|----------------------------|------------2----3-4-5----|
Guitar Solo (Matt)
~~~ ~~
+E E E E Q. E +E E E H E
|-----------------------|------------------|
|------------10---------|----------10------|
|-(10)--9-10----[9]---9-|-(9)--7-9-------7-|
|-----------------------|------------------|
|-----------------------|------------------|
|-----------------------|------------------|
|
| +H.. E +H.. E
|-----------------------|------------------|
|-----------------------|------------------|
|--(7)----------------6-|-(6)------------5-|
|--(7)----------------7-|-(7)------------5-|
|--(5)----------------4-|-(4)------------3-|
|-----------------------|------------------|
~~~~~ ~
+E E E a Q E E E +E S S E E H
|---------------8-------|-----------------------|
|----------6h8----8-[6]-|-([6])-5-6-5-----------|
|-(7)--5-7--------------|-------------5-7-------|
|-----------------------|-----------------------|
|-----------------------|-----------------------|
|-----------------------|-----------------------|
|
| +H.. E +H.. E
|-----------------------|-----------------------|
|-----------------------|-----------------------|
|-(5)----------------4--|--(4)--------------3---|
|-(5)----------------5--|--(5)--------------3---|
|-(3)----------------2--|--(2)--------------1---|
|-----------------------|-----------------------|
~~~
+E S S S S S S S S S S S S S S S S S S S S Q E E E
|----------------------------10h13p10----------|------------------------------------|
|----------------------11h13----------13p10h13p|=10---------------------------------|
|-(7)------------10h14-------------------------|-----12p10h12p10----12b14--12-10----|
|-----------8h12-------------------------------|-----------------12--------------12-|
|------8h12------------------------------------|------------------------------------|
|----------------------------------------------|------------------------------------|
|
| +H.. E +Q. H E
|----------------------------------------------|------------------------------------|
|----------------------------------------------|------------------------------------|
|-(3)-------------------------------------2----|-(2)--------------------------------|
|-(3)-------------------------------------2----|-(2)-----------------2------------0-|
|-(1)-------------------------------------0----|-(0)-----------------2------------0-|
|----------------------------------------------|---------------------2------------0-|
~~~~~~~
+Q Q Q Q Q Q E E E E
|---------------------|--------------------------|
|---------------------|---------------------15---|
|--------10--10--10---|-10----10---10-10---------|
|-(12)---12--12--12---|-12----12---12-12-12------|
|---------------------|--------------------------|
|---------------------|--------------------------|
|
| +H.. E +E Q Q Q E
|---------------------|--------------------------|
|---------------------|--------------------------|
|-------------------7-|-(7)-7----7-----7-----7---|
|--(0)--------------7-|-(7)-7----7-----7-----7---|
|--(0)--------------5-|-(5)-5----5-----5-----5---|
|--(0)----------------|--------------------------|
+E E E Q E E E +E E E Q E E E
|--------------------------|----------15--------------|
|-(15)--15-18-17--15----17-|-(17)--17----18--17-15-18-|
|--------------------17----|--------------------------|
|--------------------------|--------------------------|
|--------------------------|--------------------------|
|--------------------------|--------------------------|
|
| +H.. E +H.. E
|--------------------------|--------------------------|
|--------------------------|--------------------------|
|--(7)-------------------6-|--(6)-------------------5-|
|--(7)-------------------7-|--(7)-------------------5-|
|--(5)-------------------4-|--(4)-------------------3-|
|--------------------------|--------------------------|
+E E E Q E E E +E a +E E E Q. a E
|----------17-15-----15-17b18==|=(17)--(17)-(17)r====================|
|-(18)--18--------18-----------|-----------------18------------------|
|------------------------------|--------------------17---------------|
|------------------------------|-----------------------17----17h19---|
|------------------------------|-------------------------------------|
|------------------------------|-------------------------------------|
|
| +H.. E +H.. E
|------------------------------|-------------------------------------|
|------------------------------|-------------------------------------|
|--(5)-------------------4-----|--(4)----------------------------3---|
|--(5)-------------------5-----|--(5)----------------------------3---|
|--(3)-------------------2-----|--(2)----------------------------1---|
|------------------------------|-------------------------------------|
Bb5 A5 A5
|---3---| |--3--| |--3--| |--3--| |--3--| |--3--| |--3--| |--3--|
S S S S S S S S S S S S S S S S S S S S S S S S S S S S S S S S S S S S S S S S
|--------------------------------------------------------------------------|--------------------------------------------------|
|--------------------------------------------------------------------------|--------------------------------------------------|
|--------------------------------------------------------12h14h15-14h15h16-|-17p=15p14----15p14-------14----------------------|
|-(19)----------------8h10h12-10h12h14-12h14h15-12h14h15-------------------|-----------17-------17-15----17-15-14-17-15-14----|
|---8h==10h12-8h10h12------------------------------------------------------|-----------------------------------------------17-|
|--------------------------------------------------------------------------|--------------------------------------------------|
| +Q H.
|
| +H.. E +Q.
|--------------------------------------------------------------------------|--------------------------------------------------|
|--------------------------------------------------------------------------|--------------------------------------------------|
|--(3)-------------------------------------------------------------2-------|-(2)----------------------------------------------|
|--(3)-------------------------------------------------------------2-------|-(2)-----------------2-----------------------0----|
|--(1)-------------------------------------------------------------0-------|-(0)-----------------2-----------------------0----|
|--------------------------------------------------------------------------|---------------------2-----------------------0----|
Q. E Q E E +E Q Q Q E
|---------------------------------------------------|-------------------------------|
|---------------------15-------15-----17-----17-----|-(17)--18-----18-----20--20b22-|
|---------------------17b19----17b19--19b21--19b21==|=(19)r-20b22--20b22------------|
|-15---14-------14----------------------------------|-------------------------------|
|---------17-15----17-15----14----------------------|-------------------------------|
|---------------------------------------------------|-------------------------------|
| S S S S S S S S H
|
| +H.. E +E Q Q Q E
|---------------------------------------------------|-------------------------------|
|---------------------------------------------------|-------------------------------|
|---------------------------------------------7-----|--(7)---7------7------7---7----|
|-(0)-----------------------------------------7-----|--(7)---7------7------7---7----|
|-(0)-----------------------------------------5-----|--(5)---5------5------5---5----|
|-(0)-----------------------------------------------|-------------------------------|
Guitar Dual (Cory)
N.C.
~
|--3--|
+E H.. +E E E E E S S S E E
|----------------------------|------------------------------------|
|-(20)\\------10-8------------|------------10-13-11h13p11-10------|
|---7---10---------10-9-9h10-|-(10)-10-12-------------------12----|
|----------------------------|------------------------------------|
|----------------------------|------------------------------------|
|----------------------------|------------------------------------|
| E E E Q E E a E
|
| ~
| |--3--|
| E E E Q E E a E +E E E E E S S S E E
|----------------------------|---------------------------------|
|-------------6-5------------|---------------10--8h10p=8-------|
|--------7----------7-5-5h=7-|--(7)--7--9-10-------------10--9-|
|---7------------------------|---------------------------------|
|----------------------------|---------------------------------|
|----------------------------|---------------------------------|
E E E Q E E E +E E E Q E Q
|-------10--------------|------------------------|
|-11-13----13--10-------|---------10-------------|
|-----------------12-10-|-(10)-12----12--10--9---|
|-----------------------|------------------------|
|-----------------------|------------------------|
|-----------------------|------------------------|
|
| E E E Q E E E +E E E Q E Q
|-----------------------|------------------------|
|--8-10-11-10-----------|------------------------|
|--------------10--9--7-|--(7)--9-10--9---7------|
|-----------------------|-------------------10---|
|-----------------------|------------------------|
|-----------------------|------------------------|
~
|--3--|
E E E Q E E a E +E E E E E S S S E E
|----------------------|---------------------------------|
|------10-8------------|------------10-13-11h13p11-10----|
|-7-10-------10-9-9h10-|-(10)-10-12-------------------12-|
|----------------------|---------------------------------|
|----------------------|---------------------------------|
|----------------------|---------------------------------|
|
| ~
| |--3--|
| E E E Q E E a E +E E E E E S S S E E
|----------------------|---------------------------------|
|-------6-5------------|---------------10--8h10p=8-------|
|----7--------7-5-5h=7-|--(7)--7--9-10-------------10--9-|
|-7--------------------|---------------------------------|
|----------------------|---------------------------------|
|----------------------|---------------------------------|
E E E E E E Q +W
|-12-----12-----12b13r=|=(12)----|
|----8------8----------|---------|
|------9------9--------|---------|
|----------------------|---------|
|----------------------|---------|
|----------------------|---------|
|
| E E E E E E Q +W
|--8------8------8b9r==|==(8)----|
|----5------5----------|---------|
|------5------5--------|---------|
|----------------------|---------|
|----------------------|---------|
|----------------------|---------|
Guitar Dual (Matt)
E E E Q E E E +E E +H E E
|-----------------|-------------------|
|---------------5-|--(5)--------------|
|-------5----5----|------7-(7)------5-|
|-7-5-7----7------|---------------7---|
|-----------------|-------------------|
|-----------------|-------------------|
|
| E E E Q E E E +E E +H E E
|-----------------|-------------------|
|-----------------|-------------------|
|-----------------|-------------------|
|-------7----7-10-|-(10)-7-(7)------7-|
|-8-7-8----8------|---------------8---|
|-----------------|-------------------|
PM| PM|
E E E Q E E E +E S S E S S Q E E
|-5--------------|---------5-----6b8r==5-----|
|---8-6-5----5-6-|-(6)-6-6---6-6---------6---|
|----------5-----|---------------------------|
|----------------|---------------------------|
|----------------|---------------------------|
|----------------|---------------------------|
|
| PM| PM|
| E E E Q E E E +E S S E S S Q E E
|----------------|---------------------------|
|-6--------------|---------6-----8b10r=6-----|
|---9-7-5----5-7-|-(7)-7-7---7-7---------7---|
|----------7-----|---------------------------|
|----------------|---------------------------|
|----------------|---------------------------|
E E E Q E E E +E E +H E E
|-----------------|-------------------|
|---------------5-|--(5)--------------|
|-------5----5----|------7-(7)------5-|
|-7-5-7----7------|---------------7---|
|-----------------|-------------------|
|-----------------|-------------------|
|
| E E E Q E E E +E E +H E E
|-----------------|-------------------|
|-----------------|-------------------|
|-----------------|-------------------|
|-------7----7-10-|-(10)-7-(7)------7-|
|-8-7-8----8------|---------------8---|
|-----------------|-------------------|
PM| PM|
E E E Q E E E +E S S E S S Q E E
|-5--------------|---------5-----6b8r==5-6---|
|---8-6-5----5-6-|-(6)-6-6---6-6-------------|
|----------5-----|---------------------------|
|----------------|---------------------------|
|----------------|---------------------------|
|----------------|---------------------------|
|
| PM| PM|
| E E E Q E E E +E S S E S S Q E E
|----------------|---------------------------|
|-6--------------|---------6-----8b10r=6-8---|
|---9-7-5----5-7-|-(7)-7-7---7-7-------------|
|----------7-----|---------------------------|
|----------------|---------------------------|
|----------------|---------------------------|
S S S S S S S S S S S S S S S S
||--15-13-------15-13-------15-13-------15-13-------|
||o-------15-15-------15-15-------15-15-------15-15-|
||--------------------------------------------------|
||--------------------------------------------------|
||o-------------------------------------------------|
||--------------------------------------------------|
|
| S S S S S S S S S S S S S S S S
||--12-10-------12-10-------12-10-------12-10-------|
||o-------11-11-------11-11-------11-11-------11-11-|
||--------------------------------------------------|
||--------------------------------------------------|
||o-------------------------------------------------|
||--------------------------------------------------|
S S S S S S S S S S S S S S S S
|-17-13-17-13-------17-13-17-13-------17-13--------|
|-------------15-15-------------15-15-------15-15--|
|--------------------------------------------------|
|--------------------------------------------------|
|--------------------------------------------------|
|--------------------------------------------------|
|
| S S S S S S S S S S S S S S S S
|-13-10-13-10-------13-10-13-10-------13-10--------|
|-------------11-11-------------11-11-------11-11--|
|--------------------------------------------------|
|--------------------------------------------------|
|--------------------------------------------------|
|--------------------------------------------------|
S S S S S S S S S S S S S S S S
|-17-15-------17-15-------17-15-------17-15-------|
|-------17-17-------17-17-------17-17-------17-17-|
|-------------------------------------------------|
|-------------------------------------------------|
|-------------------------------------------------|
|-------------------------------------------------|
|
| S S S S S S S S S S S S S S S S
|-13-12-------13-12-------13-12-------13-12-------|
|-------13-13-------13-13-------13-13-------13-13-|
|-------------------------------------------------|
|-------------------------------------------------|
|-------------------------------------------------|
|-------------------------------------------------|
S S S S S S S S S S S S S S S S
|-18-15-18-15-------18-15-18-15-------18-15--------||
|-------------17-17-------------17-17-------17-17-o||
|--------------------------------------------------||
|--------------------------------------------------||
|-------------------------------------------------o||
|--------------------------------------------------||
|
| S S S S S S S S S S S S S S S S
|-15-12-15-12-------15-12-15-12-------15-12--------||
|-------------13-13-------------13-13-------13-13-o||
|--------------------------------------------------||
|--------------------------------------------------||
|-------------------------------------------------o||
|--------------------------------------------------||
S S S S S S S S S S S S S S S S Q E Q E Q
|-20-17----17-------------------------------------|-----------------------------|
|-------20----20-17-20-17----17-------------------|-----------19b20--17-20b22===|
|-------------------------19----19-17-19-17----17-|-19b21r=17-------------------|
|-------------------------------------------19----|-----------------------------|
|-------------------------------------------------|-----------------------------|
|-------------------------------------------------|-----------------------------|
|
| S S S S S S S S S S S S S S S S Q E Q E Q
|-15-12----12-------------------------------------|-----------------------------|
|-------15----15-12-15-12----12-------------------|-----------14b15--12-15b17===|
|-------------------------14----14-12-14-12----12-|-14b16r=12-------------------|
|-------------------------------------------14----|-----------------------------|
|-------------------------------------------------|-----------------------------|
|-------------------------------------------------|-----------------------------|
|
| Gtr III
| W W
|-------------------------------------------------|-----------------------------|
|-------------------------------------------------|-----------------------------|
|-------------------------------------------------|-----------------------------|
|-------------------------------------------------|-----------------------------|
|-------------------------------------------------|-----------------------------|
|-------------------------------------------------|-----------------------------|
Metalcore Chant (Hey!)
>
+W +W +W +W
|-------------|-------------|------------------|--------------|
|-(20)--------|-(20)--------|-(20)-------------|-(20)r--------|
|-------------|-------------|------------------|--------------|
|-------------|-------------|------------------|--------------|
|-------------|-------------|------------------|--------------|
|-------------|-------------|------------------|--------------|
|
| >
| +W +W +W +W
|-------------|-------------|------------------|--------------|
|-(15)--------|-(15)--------|-(15)-------------|-(15)r--------|
|-------------|-------------|------------------|--------------|
|-------------|-------------|------------------|--------------|
|-------------|-------------|------------------|--------------|
|-------------|-------------|------------------|--------------|
|
| W W Q E Q. E E +E H..
|-------------|-------------|------------------|--------------|
|-------------|-------------|------------------|--------------|
|-------------|-------------|---3-----5------7-|--(7)---------|
|-------------|-------------|---3-----5------7-|--(7)---------|
|-------------|-------------|---1-----3------5-|--(5)---------|
|-------------|-------------|------------------|--------------|
Wx2 Q E Q. E E +E H.. Wx2
|------------||----------------|---------------|---------||
|------------||o---------------|---------------|--------o||
|------------||--3----5------7-|-(7)-----------|---------||
|------------||--3----5------7-|-(7)-----------|---------||
|------------||o-1----3------5-|-(5)-----------|--------o||
|------------||----------------|---------------|---------||
Gtr I
PM--------------------|
Q E Q. E E +Q E E E E E E E E E E Q Q
|---------------|------------------|---------------------|
|---------------|------------------|---------------------|
|-3----5------7-|-(7)--------------|---------------------|
|-3----5------7-|-(7)--------------|---------------------|
|-1----3------5-|-(5)--0-0-0-0-0-0-|-0-0-0-0-0--/12\\----|
|---------------|------0-0-0-0-0-0-|-0-0-0-0-0--/12\\----|
|
| Gtr II
| PM--------------------| TP
| Q E Q. E E +Q E E E E E E E E E E Q Q
|---------------|------------------|---------------------|
|---------------|------------------|---------------------|
|-3----5------7-|-(7)--------------|---------------------|
|-3----5------7-|-(7)--------------|---------------------|
|-1----3------5-|-(5)--0-0-0-0-0-0-|-0-0-0-0-0-----------|
|---------------|------0-0-0-0-0-0-|-0-0-0-0-0----x\\----|
Chorus
Gtrs I, II
PM----------| PM----|
Q E Q. E E +E E E E E E E E Q E Q. E E +E E Q E E E E 7x
||----------------|-------------------|---------------|--------------------||
||o---------------|-------------------|---------------|-------------------o||
||--3----5------7-|-(7)---------------|-3----5--------|--------------------||
||--3----5------7-|-(7)---------------|-3----5------5-|-(5)-7-3------------||
||o-1----3------5-|-(5)-0-0-0-0-0-0-0-|-1----3------5-|-(5)-7-3--3-3-3-3--o||
||----------------|-----0-0-0-0-0-0-0-|-------------5-|-(5)-7-3--3-3-3-3---||
PM----------|
Q E Q. E E +E E E E E E E E Q E Q. E E +E E Q H
|---------------|-------------------|---------------|--------------------|
|---------------|-------------------|---------------|--------------------|
|-3----5------7-|-(7)---------------|-3----5--------|--------------------|
|-3----5------7-|-(7)---------------|-3----5------5-|-(5)-7-3\\----------|
|-1----3------5-|-(5)-0-0-0-0-0-0-0-|-1----3------5-|-(5)-7-3\\----------|
|---------------|-----0-0-0-0-0-0-0-|-------------5-|-(5)-7-3\\----------|
Duration Legend
---------------
W - whole; H - half; Q - quarter; E - 8th; S - 16th; T - 32nd; X - 64th; a - acciaccatura
+ - note tied to previous; . - note dotted; .. - note double dotted
Uncapitalized letters represent notes that are staccato (1/2 duration)
Irregular groupings are notated above the duration line
Duration letters will always appear directly above the note/fret number it represents the
duration for. Duration letters with no fret number below them represent rests. Multi-
bar rests are notated in the form Wxn, where n is the number of bars to rest for. Low
melody durations appear below the staff
Tablature Legend
----------------
h - hammer-on
p - pull-off
b - bend
pb - pre-bend
r - bend release (if no number after the r, then release immediately)
/\\ - slide into or out of (from/to \"nowhere\")
s - legato slide
S - shift slide
- natural harmonic
[n] - artificial harmonic
n(n) - tapped harmonic
~ - vibrato
tr - trill
T - tap
TP - trem. picking
PM - palm muting
\\n/ - tremolo bar dip; n = amount to dip
\\n - tremolo bar down
n/ - tremolo bar up
/n\\ - tremolo bar inverted dip
= - hold bend; also acts as connecting device for hammers/pulls
- volume swell (louder/softer)
x - on rhythm slash represents muted slash
o - on rhythm slash represents single note slash
Misc Legend
-----------
| - bar
|| - double bar
||o - repeat start
o|| - repeat end
*| - double bar (ending)
: - bar (freetime)
$ - Segno
& - Coda
Tempo markers - = BPM(8/16=s8/s16), where s8 = swing 8ths, s16 = swing 16ths

Important: The song above is NOT stored on the Chordie server. The original song is hosted at www.guitaretab.com. Chordie works as a search engine and provides on-the-fly formatting. Chordie does not index songs against artists'/composers' will. To remove this song please click here.

Text color:
Chord color:
Chord grids: 
Font size:    
Page size: 

C#m/E D5 Dm/F Gm/Bb
Rate #3 of 3 versions

Login - add to songbook

SHARE PAGE  



You need to log in to post comments