Guitar Tabs, Chords and Lyrics
Major upgrade!! After one year development the new version of Chordie is now online! Please give feedback.


Summer Breeze  Type O Negative

SUMMER BREEZE
As recorded by Type O Negative
(From the 1993 Album BLOODY KISSES)
Words and Music by James Seals & Dash Crofts
5 7 [A5]7 x x x x 3 [C5]5 5 x x x 10 1[G5]2 12 x x x 5 [D5]7 7 x x
Eb5 A5XII C#5 E5
x 6 8 8 x x x 12 14 14 x x x 4 6 6 x x x 7 9 9 x x
B5 F5 G5III E5open
x 2 4 4 x x x 8 10 10 x x 3 5 5 x x x 0 2 2 x x x
Gtr I (B E A D F# B) - 'Gtr.1'
Gtr II (B E A D F# B) - 'Gtr.2'
Gtr III (B E A D F# B) - 'Synth'
Gtr IV (B E A D F# B) - 'Synth'
Gtr V (B E A D F# B) - 'Gtr.3'
Intro
Slow Rock Q=64
N.C.
[4/4] Gtr I
|-3-|
W E E E E +E Q E S S S E S S Q S S Q
 
 |----------||------------------|------------------------|
 |----------||------------------|------------------------|
 |----------||------------------|------------------------|
 |----------||-----5-2-(2)------|------------------------|
 |----------||---3---------5--3-|-2h3p2------------------|
 |----------||-5----------------|-------5-3-4-5--3-4-5\--|

Gtrs I, II
|-3-|
E E E E +E Q E S S S E S S Q S S S E.
 
 |-------------------|-------------------------|
 |-------------------|-------------------------|
 |-------------------|-------------------------|
 |------5-2-(2)------|----------------------5--|
 |----3---------5--3-|-2h3p2----------------3--|
 |-/5----------------|-------5-3-4-5--5-4-3----|

|-3-|
E E E E +E Q E S S S E S S Q S S Q
 
 |------------------|------------------------|
 |------------------|------------------------|
 |------------------|------------------------|
 |-----5-2-(2)------|------------------------|
 |---3---------5--3-|-2h3p2------------------|
 |-5----------------|-------5-3-4-5--3-4-5\--|

|-3-|
E E E E +E Q E S S S E S S Q S S S E.
 
 |-------------------|-------------------------||
 |-------------------|-------------------------||
 |-------------------|-------------------------||
 |------5-2-(2)------|----------------------5\-||
 |----3---------5--3-|-2h3p2----------------3\-||
 |-/5----------------|-------5-3-4-5--5-4-3----||

Verse
[A5] [C5] [G5] [D5] [A5] PM[C5] [D5Eb5]
Q E. +S E E E E E E E E Q Q Q E E +E S S S S E
 
 |--------------------|---------------------|-----------------------|
 |--------------------|---------------------|-----------------------|
 |------------5---5-5S|=12----12-12\-7--7\--|------5-(5)-x-x-x-7-8\-|
 |-7--7--(7)\-5-5-5-5S|=12-12-12-12\-7--7\--|-7--7-5-(5)-x-x-x-7-8\-|
 |-7--7--(7)\-3---3-3S|=10----10-10\-5--5\--|-7--7-3-(3)-x-x-x-5-6\-|
 |-5--5--(5)\---------|---------------------|-5--5-------x-x-x------|

A5 C5 G5 D5 A5 A5XII G5 A5XII
PM PM--|
Q E. +S E E E E E E E E Q E. S Q E E +E S S S S E
 
 |--------------------|----------------------|---------------------------||
 |--------------------|----------------------|---------------------------||
 |------------5---5-5S|=12----12-12\-7--7----|------14-(14)\-------12-14-||
 |-7--7--(7)\-5-5-5-5S|=12-12-12-12\-7--7----|-7--7-14-(14)\-------12-14-||
 |-7--7--(7)\-3---3-3S|=10----10-10\-5--5----|-7--7-12-(12)\-------10-12-||
 |-5--5--(5)\---------|--------------------0-|-5--5----------0-0-0-------||

Chorus
[D5] [C#D5Eb5] [E5] [EbD5B5]  
 
 PM----| PM----|

Q E E E E S S S S Q E E E E S S S S
 
 |--------------------|--------------------|
 |--------------------|--------------------|
 |-7--7-7-7-7-7-6-7-8-|-9--9-9-9-9-9-8-7-4-|
 |-7--7-7-7-7-7-6-7-8-|-9--9-9-9-9-9-8-7-4-|
 |-5--5-5-5-5-5-4-5-6-|-7--7-7-7-7-7-6-5-2-|
 |--------------------|--------------------|

[C5] [D5] PM| [A5] PM PM
Q E S S S E. E S S Q E E +Q. +S S
 
 |---------------------|---------------------|
 |---------------------|---------------------|
 |-5--5-x-x-5-7--7-----|---------------------|
 |-5--5-x-x-5-7--7-----|-7----7-(7)---(7)----|
 |-3--3-x-x-3-5--5-----|-7----7-(7)---(7)----|
 |-----------------0-0-|-5--0-5-(5)---(5)-0--|

A5XII G5 A5XII D5 C#D5Eb5
PM PM----|
Q E E +E S S S E +S Q E E E E S S S S
 
 |------------------------------------------|----------------------------------|
 |------------------------------------------|----------------------------------|
 |------------------/12--------12--14-(14)\-|---7--------7-7-7-7-------7-6-7-8-|
 |--7---------7-(7)-/12--------12--14-(14)\-|---7--------7-7-7-7-------7-6-7-8-|
 |--7---------7-(7)-/10--------10--12-(12)\-|---5--------5-5-5-5-------5-4-5-6-|
 |--5------0--5-(5)-------------------------|----------------------------------|

|
| Gtr III
| E. E. E E. S +Q +H. a Q
 
 |-21--22----24-22------15b17-(15)----------|-(15)pb17===========(15)r---------|
 |------------------------------------------|----------------------------------|
 |-18--19----21-19------12b14-(12)----------|-(12)pb14===========(12)r---------|
 |------------------------------------------|----------------------------------|
 |-16--17----19-17------10b12-(10)----------|-(10)pb12===========(10)r---------|
 |------------------------------------------|----------------------------------|

[E5] PM----| [EbD5B5] [C5] [D5] PM|
Q E E E E S S S S Q E S S S E. E S S
 
 |--------------------|-----------------------|
 |--------------------|-----------------------|
 |-9--9-9-9-9-9-8-7-4-|-5--5-x-x-5-7--7-------|
 |-9--9-9-9-9-9-8-7-4-|-5--5-x-x-5-7--7-------|
 |-7--7-7-7-7-7-6-5-2-|-3--3-x-x-3-5--5-------|
 |--------------------|-----------------0-0---|

|
| W W
 
 |--------------------|-----------------------|
 |--------------------|-----------------------|
 |--------------------|-----------------------|
 |--------------------|-----------------------|
 |--------------------|-----------------------|
 |--------------------|-----------------------|

[A5] PM PM PM[C5] [D5]
Q E E +Q. +S S Q E E +E S S S E +S
 
 |--------------------|------------------------------------------||
 |--------------------|------------------------------------------||
 |--------------------|------------------/5-----5-7---------(7)\-||
 |-7----7-(7)---(7)---|--7---------7-(7)-/5-----5-7---------(7)\-||
 |-7----7-(7)---(7)---|--7---------7-(7)-/3-----3-5---------(5)\-||
 |-5--0-5-(5)---(5)-0-|--5------0--5-(5)-------------------------||

|
| W E. E. E E. E. +E
 
 |--------------------|-21--22----24-22-----15------(15)b17------||
 |--------------------|------------------------------------------||
 |--------------------|-18--19----21-19-----12------(12)b14------||
 |--------------------|------------------------------------------||
 |--------------------|-16--17----19-17-----10------(10)b12------||
 |--------------------|------------------------------------------||

Interlude
N.C.
 
 |----3----|

E E E E +E Q E S S S E S S Q S S Q
 
 |--------------------------|---------------------------------------|
 |--------------------------|---------------------------------------|
 |--------------------------|---------------------------------------|
 |-------------5-2-(2)------|---------------------------------------|
 |-----------3---------5--3-|---2h======3p2-------------------------|
 |---5----------------------|---------------5-3-4-5---------3-4-5\--|

|
| +W +H a H
 
 |-(15)pb17=================|=(15)pb17==============(15)r-----------|
 |--------------------------|---------------------------------------|
 |-(12)pb14=================|=(12)pb14==============(12)r-----------|
 |--------------------------|---------------------------------------|
 |-(10)pb12=================|=(10)pb12==============(10)r-----------|
 |--------------------------|---------------------------------------|

|-3-|
E E E E +E Q E S S S E S S Q S S S E.
 
 |-------------------|---------------------------||
 |-------------------|---------------------------||
 |-------------------|---------------------------||
 |------5-2-(2)------|----------------------5\---||
 |----3---------5--3-|-2h3p2----------------3\---||
 |-/5----------------|-------5-3-4-5--5-4-3------||

|
| W W
 
 |-------------------|---------------------------||
 |-------------------|---------------------------||
 |-------------------|---------------------------||
 |-------------------|---------------------------||
 |-------------------|---------------------------||
 |-------------------|---------------------------||

Verse
[A5] [C5] [G5] [D5] PM
Q E. +S E E E E E E E E E E E S S
 
 |--------------------------|-------------------------------|
 |--------------------------|-------------------------------|
 |---------------5------5-5S|==12-----12-12\---7------7-7---|
 |-/7--7--(7)\---5---5--5-5S|==12--12-12-12\---7---7--7-7---|
 |-/7--7--(7)\---3------3-3S|==10-----10-10\---5------5-5---|
 |-/5--5--(5)\--------------|-----------------------------0-|

|
| Gtr IV
| H +E Q. +H +E Q.
 
 |-12----------(12)-10------|-(10)-----------(10)-12--------|
 |-14----------(14)-10------|-(10)-----------(10)-14--------|
 |-14----------(14)-12------|-(12)-----------(12)-14--------|
 |-14----------(14)-12------|-(12)-----------(12)-14--------|
 |--------------------------|-------------------------------|
 |--------------------------|-------------------------------|

[A5] PM[C5] [D5Eb5]
Q E E +E S S S S E
 
 |-----------------------------|
 |-----------------------------|
 |----------5--(5)-x--x-x-7-8\-|
 |---7---7--5--(5)-x--x-x-7-8\-|
 |---7---7--3--(3)-x--x-x-5-6\-|
 |---5---5---------x--x-x------|

|
| +Q. E +E Q.
 
 |-(12)----15-(15)-------------|
 |-(14)----13-(13)-------------|
 |-(14)----12-(12)-------------|
 |-(14)------------------------|
 |-----------------------------|
 |-----------------------------|

[A5] Q E. +S [C5] E E E E [G5] E E E E [D5] Q E. S
 
 |--------------------------|------------------------------|
 |--------------------------|------------------------------|
 |---------------5------5-5S|==12-----12-12\---7------7----|
 |--7--7--(7)\---5---5--5-5S|==12--12-12-12\---7------7----|
 |--7--7--(7)\---3------3-3S|==10-----10-10\---5------5----|
 |--5--5--(5)\--------------|----------------------------0-|

|
| H +E Q. +H +E Q.
 
 |-12----------(12)-10------|-(10)-----------(10)-12-------|
 |-14----------(14)-10------|-(10)-----------(10)-14-------|
 |-14----------(14)-12------|-(12)-----------(12)-14-------|
 |-14----------(14)-12------|-(12)-----------(12)-14-------|
 |--------------------------|------------------------------|
 |--------------------------|------------------------------|

A5 A5XII G5 A5XII
PM PM--|
Q E E +E S S S S E
 
 |-------------------------------||
 |-------------------------------||
 |---------14-(14)\-------12-14\-||
 |---7---7-14-(14)\-------12-14\-||
 |---7---7-12-(12)\-------10-12\-||
 |---5---5----------0-0-0--------||

|
| +Q. E H
 
 |-(12)--------------------------||
 |-(14)--------------------------||
 |-(14)--------------------------||
 |-(14)--------------------------||
 |-------------------------------||
 |-------------------------------||

Chorus
[D5] [C#D5Eb5] [E5] [EbD5B5]  
 
 PM----| PM-----|

Q E E E E S S S S Q E E E E S S S S
 
 |---------------------|----------------------|
 |---------------------|----------------------|
 |--7--7-7-7-7-7-6-7-8-|--9--9-9--9-9-9-8-7-4-|
 |--7--7-7-7-7-7-6-7-8-|--9--9-9--9-9-9-8-7-4-|
 |--5--5-5-5-5-5-4-5-6-|--7--7-7--7-7-7-6-5-2-|
 |---------------------|----------------------|

|
| W H Q Q
 
 |-17------------------|---------16-----------|
 |-15------------------|-17------17-----------|
 |---------------------|-16-------------------|
 |---------------------|----------------------|
 |---------------------|----------------------|
 |---------------------|----------------------|

[C5] [D5] PM| [A5] PM PM
Q E S S S E. E S S Q E E +Q. +S S
 
 |-----------------------------|---------------------|
 |-----------------------------|---------------------|
 |--5--5-x-x---5--7------7-----|---------------------|
 |--5--5-x-x---5--7------7-----|--7--7-7-(7)---(7)---|
 |--3--3-x-x---3--5------5-----|--7--7-7-(7)---(7)---|
 |-------------------------0-0-|--5--5-5-(5)---(5)-0-|

|
| H +E Q. W
 
 |-------------------14--------|-12------------------|
 |-15--------(15)--------------|-14------------------|
 |-12--------(12)--------------|-14------------------|
 |-----------------------------|---------------------|
 |-----------------------------|---------------------|
 |-----------------------------|---------------------|

A5XII G5 A5XII D5 C#D5Eb5
PM PM----|
Q E E +E S S S E +S Q E E E E S S S S
 
 |------------------------------------------|----------------------------------|
 |------------------------------------------|----------------------------------|
 |------------------/12--------12--14-(14)\-|---7--------7-7-7-7-------7-6-7-8-|
 |--7---------7-(7)-/12--------12--14-(14)\-|---7--------7-7-7-7-------7-6-7-8-|
 |--7---------7-(7)-/10--------10--12-(12)\-|---5--------5-5-5-5-------5-4-5-6-|
 |--5------0--5-(5)-------------------------|----------------------------------|

|
| Gtr III
| E. E. E E. S +Q +H. a Q
 
 |-21--22----24-22------15b17-(15)----------|-(15)pb17===========(15)r---------|
 |------------------------------------------|----------------------------------|
 |-18--19----21-19------12b14-(12)----------|-(12)pb14===========(12)r---------|
 |------------------------------------------|----------------------------------|
 |-16--17----19-17------10b12-(10)----------|-(10)pb12===========(10)r---------|
 |------------------------------------------|----------------------------------|

|
| Gtr IV
| W W
 
 |------------------------------------------|--17------------------------------|
 |------------------------------------------|--15------------------------------|
 |------------------------------------------|----------------------------------|
 |------------------------------------------|----------------------------------|
 |------------------------------------------|----------------------------------|
 |------------------------------------------|----------------------------------|

[E5] PM-----| [EbD5B5] [C5] [D5] PM|
Q E E E E S S S S Q E S S S E. E S S
 
 |----------------------|------------------------------|
 |----------------------|------------------------------|
 |--9--9-9--9-9-9-8-7-4-|--5--5-x-x---5--7------7------|
 |--9--9-9--9-9-9-8-7-4-|--5--5-x-x---5--7------7------|
 |--7--7-7--7-7-7-6-5-2-|--3--3-x-x---3--5------5------|
 |----------------------|-------------------------0-0--|

|
| W W
 
 |----------------------|------------------------------|
 |----------------------|------------------------------|
 |----------------------|------------------------------|
 |----------------------|------------------------------|
 |----------------------|------------------------------|
 |----------------------|------------------------------|

|
| H Q Q H +E Q.
 
 |---------16-----------|-------------------14---------|
 |-17------17-----------|-15--------(15)---------------|
 |-16-------------------|-12--------(12)---------------|
 |----------------------|------------------------------|
 |----------------------|------------------------------|
 |----------------------|------------------------------|

[A5] PM PM PM PM[C5] [D5] PM
Q E E +Q. +S S Q E E +S S S S S S S S
 
 |---------------------|----------------------------------------||
 |---------------------|----------------------------------------||
 |---------------------|--------------------5-----5-7---7\------||
 |--7--7-7-(7)---(7)---|--7------7--7-(7)-0-5-----5-7---7\------||
 |--7--7-7-(7)---(7)---|--7------7--7-(7)---3-----3-5---5\------||
 |--5--5-5-(5)---(5)-0-|--5------5--5-(5)---------------------0-||

|
| W E. E. E E. E. +E
 
 |---------------------|-21--22----24-22------15------(15)b17---||
 |---------------------|----------------------------------------||
 |---------------------|-18--19----21-19------12------(12)b14---||
 |---------------------|----------------------------------------||
 |---------------------|-16--17----19-17------10------(10)b12---||
 |---------------------|----------------------------------------||

|
| W W
 
 |-12------------------|----------------------------------------||
 |-14------------------|----------------------------------------||
 |-14------------------|----------------------------------------||
 |---------------------|----------------------------------------||
 |---------------------|----------------------------------------||
 |---------------------|----------------------------------------||

Interlude
A5 F5 A5XIIC5D5
Gtr I
PM PM| PM
Q E E +Q. S S Q E E +E E +E. S
 
 |----------------------------------|------------------------|
 |----------------------------------|------------------------|
 |--------------10-(10)-------------|-14\--5s7-(7)-7b8r(7)---|
 |---7----------10-(10)-------------|-14\--5s7-(7)-7b8r(7)---|
 |---7-----------8--(8)-------------|-12\--3s5-(5)-5b6r(5)---|
 |---5--------0-----------0-0-------|----------------------0-|

|
| +W a W
 
 |-(15)pb17===================(15)r-|------------------------|
 |----------------------------------|------------------------|
 |-(12)pb14===================(12)r-|------------------------|
 |----------------------------------|------------------------|
 |-(10)pb12===================(10)r-|------------------------|
 |----------------------------------|------------------------|

A5 F5 A5XIIC5D5
PM PM| PM
Q E E +Q. S S Q E E +E E +E. S
 
 |--------------------|------------------------||
 |--------------------|------------------------||
 |------10-(10)-------|-14\--5s7-(7)-7b8r(7)---||
 |-7----10-(10)-------|-14\--5s7-(7)-7b8r(7)---||
 |-7-----8--(8)-------|-12\--3s5-(5)-5b6r(5)---||
 |-5--0-----------0-0-|----------------------0-||

|
| W W
 
 |--------------------|------------------------||
 |--------------------|------------------------||
 |--------------------|------------------------||
 |--------------------|------------------------||
 |--------------------|------------------------||
 |--------------------|------------------------||

Bridge
A5 F5 A5XIIC5D5
Gtrs I, II
PM PM| PM
Q E E +Q. S S Q E E +E E +E. S
 
 |--------------------|------------------------|
 |--------------------|------------------------|
 |------10-(10)-------|-14\--5s7-(7)-7b8r(7)---|
 |-7----10-(10)-------|-14\--5s7-(7)-7b8r(7)---|
 |-7-----8--(8)-------|-12\--3s5-(5)-5b6r(5)---|
 |-5--0-----------0-0-|----------------------0-|

|
| Gtr V
| W W
 
 |--------------------|------------------------|
 |--------------------|------------------------|
 |--------------------|------------------------|
 |--------------------|------------------------|
 |--------------------|------------------------|
 |--------------------|------------------------|

A5 F5 A5XIIC5D5
PM PM| PM
Q E E +Q. S S Q E E +E E +E. S
 
 |--------------------|------------------------|
 |--------------------|------------------------|
 |------10-(10)-------|-14\--5s7-(7)7b8r(7)----|
 |-7----10-(10)-------|-14\--5s7-(7)7b8r(7)----|
 |-7-----8--(8)-------|-12\--3s5-(5)5b6r(5)----|
 |-5--0-----------0-0-|---------------------0--|

|
| W H Q Q
 
 |--------------------|------------------------|
 |--------------------|------------------------|
 |--------------------|------------------------|
 |--------------------|------------------------|
 |--------------------|----------12s=====9\----|
 |--------------------|------------------------|

[G5] [A5]  
 
 PM-------------------------------------------------------------------------|

S S S S S S S S S S S S S S S S S S S S S S S S S S S S S S S S
 
 |-------------------------------------|----------------------------------------|
 |-------------------------------------|----------------------------------------|
 |-------------------------------------|----------------------------------------|
 |-5--5-5-5-5-5-5-5-5-5-5-5--5--5-5--5-|---7-7--7-7--7--7-7-7--7--7-7-7-7-7-7-7-|
 |-5--5-5-5-5-5-5-5-5-5-5-5--5--5-5--5-|---7-7--7-7--7--7-7-7--7--7-7-7-7-7-7-7-|
 |-3--3-3-3-3-3-3-3-3-3-3-3--3--3-3--3-|---5-5--5-5--5--5-5-5--5--5-5-5-5-5-5-5-|

|
| H. +E S S a S E. +E E +Q. E
 
 |-------------------------------------|----------------------------------------|
 |-------------------------------------|----------------------------------------|
 |-------------------------------------|----------------------------------------|
 |-------------------------------------|-----7------(7)-------------------------|
 |-5------------------------(5)---5\---|-5s7--------------0---(0)---------------|
 |-------------------------------------|----------------------------------------|

G5III
 
 PM---------------------------------------

S S S S S S S S S S S S S S S S
 
 |-------------------------------------------|
 |-------------------------------------------|
 |-------------------------------------------|
 |---5-5--5-5--5--5-5-5--5--5-5-5-5-5--5---5-|
 |---5-5--5-5--5--5-5-5--5--5-5-5-5-5--5---5-|
 |---3-3--3-3--3--3-3-3--3--3-3-3-3-3--3---3-|

|
| a S E. +Q +Q. +S S
 
 |-------------------------------------------|
 |-------------------------------------------|
 |-------------------------------------------|
 |-----7------(7)-------(7)-----------(7)\---|
 |-3s5---------------------------------------|
 |-------------------------------------------|

A5 E5open
 
 -----------------------------------------------------------|

S S S S S S S S S S S S S S S S S S S S S S S S S S S S S S S S
 
 |--------------------------------------|----------------------------------------||
 |--------------------------------------|----------------------------------------||
 |--------------------------------------|----------------------------------------||
 |---7-7--7-7--7--7-7-7-7-7-7-7-7-7-7-7-|-2-2--2-2--2--2-2-2-2-------------------||
 |---7-7--7-7--7--7-7-7-7-7-7-7-7-7-7-7-|-2-2--2-2--2--2-2-2-2--/7-7---5----5-7--||
 |---5-5--5-5--5--5-5-5-5-5-5-5-5-5-5-5-|-0-0--0-0--0--0-0-0-0-------7----7------||

|
| a S E. +H. S E. +Q Q Q
 
 |--------------------------------------|----------------------------------------||
 |--------------------------------------|----------------------------------------||
 |--------------------------------------|-4--------------------------------------||
 |-----7------(7)-----------------------|---2------(2)---------------------------||
 |-5s7----------------------------------|--------------------x\------------------||
 |--------------------------------------|------------------------------x\--------||

Verse
[A5] PM[C5] [G5] [D5] PM[A5] [C5] [D5Eb5]
Q E. S Q. +E Q. +E Q. S S Q E E +E S S S S E
 
 |-----------------------|--------------------------|-------------------------|
 |-----------------------|--------------------------|-------------------------|
 |------------5------(5)S|=12------(12)\-7------x---|-------5-(5)-x-x-x-7-8\--|
 |-7---7----0-5------(5)S|=12------(12)\-7------x---|-7---x-5-(5)-x-x-x-7-8\--|
 |-7---7------3------(3)S|=10------(10)\-5------x---|-7---x-3-(3)-x-x-x-5-6\--|
 |-5---5-----------------|------------------------0-|-5---x-------x-x-x-------|

|
| E E E E E E E E E E E E E E E E E E E E +E E Q
 
 |-----------------------|--------------------------|-------------------------|
 |-----------------------|--------------------------|-------------------------|
 |-----------------7-----|--------------------------|-------------------------|
 |-----7---------5----5\-|-------7------------7-----|-7---7-5-(5)-------------|
 |---7----7---3----------|-----5-----5------7---7---|---7---3-(3)-------------|
 |-5---------------------|--3------------5----------|-------------------------|

[A5] [C5] [G5] [D5] PM
Q Q Q. +E Q. +E Q. +S S
 
 |--------------------|----------------------------|
 |--------------------|----------------------------|
 |---------5------(5)S|=12------(12)\-7------(7)---|
 |-7---7---5------(5)S|=12------(12)\-7------(7)---|
 |-7---7---3------(3)S|=10------(10)\-5------(5)---|
 |-5---5--------------|--------------------------0-|

|
| E E E E E E E E E E E E E E E E
 
 |--------------------|----------------------------|
 |--------------------|----------------------------|
 |--------------7-----|----------------------------|
 |-----7------5----5--|-----7-----7--------7-------|
 |---7---7-3----------|-------5----------7----7----|
 |-5------------------|--3------------5------------|

A5 A5XII G5 A5XII
Q E E +E S S S S E
 
 |------------------------------||
 |------------------------------||
 |-------14-(14)\-x-x-x-12-14\--||
 |-7---x-14-(14)\-x-x-x-12-14\--||
 |-7---x-12-(12)\-x-x-x-10-12\--||
 |-5---x----------x-x-x---------||

|
| E E e E +Q. +E
 
 |------------------------------||
 |------------------------------||
 |------------------------------||
 |-7---7--7--(7)-----------(7)\-||
 |---7-7--7--(7)-----------(7)\-||
 |------------------------------||

Out-Chorus
[D5] [C#D5Eb5] [E5] [EbD5B5]  
 
 PM----| PM----|

Q E E E E S S S S Q E E E E S S S S
 
 |--------------------|----------------------|
 |--------------------|----------------------|
 |-7--7-7-7-7-7-6-7-8-|--9---9-9-9-9-9-8-7-4-|
 |-7--7-7-7-7-7-6-7-8-|--9---9-9-9-9-9-8-7-4-|
 |-5--5-5-5-5-5-4-5-6-|--7---7-7-7-7-7-6-5-2-|
 |--------------------|----------------------|

|
| W W
 
 |--------------------|----------------------|
 |--------------------|----------------------|
 |--------------------|----------------------|
 |-0------------------|-(2)------------------|
 |-0------------------|----------------------|
 |--------------------|----------------------|

[C5] [D5] PM| [A5] PM PM
Q E S S S E. E S S Q E E +Q. +S S
 
 |---------------------|-----------------------|
 |---------------------|-----------------------|
 |-5--5-x-x-5-7--7-----|-----------------------|
 |-5--5-x-x-5-7--7-----|--7---7-7-(7)---(7)----|
 |-3--3-x-x-3-5--5-----|--7---7-7-(7)---(7)----|
 |-----------------0-0-|--5---5-5-(5)---(5)-0--|

|
| <
| W +W
 
 |---------------------|-----------------------|
 |---------------------|-----------------------|
 |---------------------|-----------------------|
 |-2-------------------|-(2)-------------------|
 |---------------------|-----------------------|
 |---------------------|-----------------------|

A5 G5 A5XG5 D5 C#D5Eb5
 
 PM PM--------|

Q E E E S S S E S Q E E E E S S S S
 
 |--------------------------------------|---------------------------------------|
 |--------------------------------------|---------------------------------------|
 |------------------12--------12--14-12-|---7---------7-----7-7-7-7-6-7-8-------|
 |--7---------7--x--12--------12--14-12-|---7---------7-----7-7-7-7-6-7-8-------|
 |--7---------7--x--10--------10--12-10-|---5---------5-----5-5-5-5-4-5-6-------|
 |--5------0--5--x----------------------|---------------------------------------|

|
| PM
| +H +E. S S E S Q +H.
 
 |--------------------------------------|---------------------------------------|
 |--------------------------------------|---------------------------------------|
 |--------------------------------------|---------------------------------------|
 |-(2)----------(2)---------------------|---------------------------------------|
 |--------------------------------------|---------------------------------------|
 |----------------------0------3---5--3-|---3b5------(3)pb5---------------------|

|
| Gtr III
| E. E. E E. S +Q +W a
 
 |-21--22----24-22-----15b17-(15)-------|-(15)pb17========================(15)r-|
 |--------------------------------------|---------------------------------------|
 |-18--19----21-19-----12b14-(12)-------|-(12)pb14========================(12)r-|
 |--------------------------------------|---------------------------------------|
 |-16--17----19-17-----10b12-(10)-------|-(10)pb12========================(10)r-|
 |--------------------------------------|---------------------------------------|

[E5] PM----| [EbD5B5] [C5] [D5] PM|
Q E E E E S S S S Q E S S S E. E S S
 
 |--------------------|------------------------|
 |--------------------|------------------------|
 |-9--9-9-9-9-9-8-7-4-|-5--5-x-x-5-7--7--------|
 |-9--9-9-9-9-9-8-7-4-|-5--5-x-x-5-7--7--------|
 |-7--7-7-7-7-7-6-5-2-|-3--3-x-x-3-5--5--------|
 |--------------------|------------------0-0---|

|
| W Q E S S S E. E. S
 
 |--------------------|------------------------|
 |--------------------|------------------------|
 |--------------------|------------------------|
 |--------------------|-5--5-x-x-5-7--7----x---|
 |-2------------------|-3--3-x-x-3-5--5----x---|
 |-0------------------|------------------------|

|
| W W
 
 |--------------------|------------------------|
 |--------------------|------------------------|
 |--------------------|------------------------|
 |--------------------|------------------------|
 |--------------------|------------------------|
 |--------------------|------------------------|

[B] 
[A5] PM PM|[C5] [D5] [C5]
Q E E +Q.. T T Q E E +E S S S E S
 
 |-------------------|--------------------------------------|
 |-------------------|--------------------------------------|
 |-------------------|------------------5---------5---7s==5-|
 |-7--7-7-(7)--------|--7------x--7-(7)-5---------5---7s==5-|
 |-7--7-7-(7)--------|--7------x--7-(7)-3---------3---5s==3-|
 |-5--5-5-(5)----5-5-|--5------x--5-(5)---------------------|

|
| W +H. +E E
 
 |-------------------|--------------------------------------|
 |-------------------|--------------------------------------|
 |-9-----------------|-(9)-----------------------(9)\-------|
 |-------------------|--------------------------------------|
 |-------------------|--------------------------------------|
 |-------------------|--------------------------------------|

|
| W E. E. E E. S +Q
 
 |-------------------|-21--22----24-22----15b17-(15)--------|
 |-------------------|--------------------------------------|
 |-------------------|-18--19----21-19----12b14-(12)--------|
 |-------------------|--------------------------------------|
 |-------------------|-16--17----19-17----10b12-(10)--------|
 |-------------------|--------------------------------------|

.=H
[D5] H. Q [E5]H H
 
 |------------------------------|------------|
 |------------------------------|------------|
 |---7----------------x\--------|-9----x\----|
 |---7----------------x\--------|-9----x\----|
 |---5----------------x\--------|-7----x\----|
 |------------------------------|------------|

|
| Q +H. W
 
 |------------------------------|------------|
 |------------------------------|------------|
 |------------------------------|------------|
 |------------------------------|------------|
 |------------------------------|-2----------|
 |---3b5---(3)pb5---------------|------------|

|
| +Q +H. a W
 
 |-(15)---(15)pb17--------(15)r-|------------|
 |------------------------------|------------|
 |-(12)---(12)pb14--------(12)r-|------------|
 |------------------------------|------------|
 |-(10)---(10)pb12--------(10)r-|------------|
 |------------------------------|------------|

'Set Me On Fire' Intro
[C5]Q. S S S [D5]E. +E +E [A5]H +Q +S S E
 
 |------------------------||---------------------*|
 |------------------------||---------------------*|
 |-5----x-x-5-7--(7)-(7)\-||---------------------*|
 |-5----x-x-5-7--(7)-(7)\-||-7----(7)--(7)-0-/9\-*|
 |-3----x-x-3-5--(5)-(5)\-||-7----(7)--(7)---/9\-*|
 |------------------------||-5----(5)--(5)---/7\-*|

|
| W W
 
 |------------------------||---------------------*|
 |------------------------||---------------------*|
 |------------------------||-9-------------------*|
 |------------------------||---------------------*|
 |------------------------||---------------------*|
 |------------------------||---------------------*|

Duration Legend
 
 ---------------
 W - whole; H - half; Q - quarter; E - 8th; S - 16th; T - 32nd; X - 64th; a - acciaccatura

+ - note tied to previous; . - note dotted; .. - note double dotted
Uncapitalized letters represent notes that are staccato (1/2 duration)
Irregular groupings are notated above the duration line
Duration letters will always appear directly above the note/fret number it represents the
duration for. Duration letters with no fret number below them represent rests. Multi-
bar rests are notated in the form Wxn, where n is the number of bars to rest for. Low
melody durations appear below the staff
Tablature Legend
 
 ----------------

h - hammer-on
p - pull-off
b - bend
pb - pre-bend
r - bend release (if no number after the r, then release immediately)
/\ - slide into or out of (from/to "nowhere")
s - legato slide
S - shift slide
- natural harmonic
(n) - artificial harmonic
n(n) - tapped harmonic
~ - vibrato
tr - trill
T - tap
TP - trem. picking
PM - palm muting
\n/ - tremolo bar dip; n = amount to dip
\n - tremolo bar down
n/ - tremolo bar up
/n\ - tremolo bar inverted dip
= - hold bend; also acts as connecting device for hammers/pulls
- volume swell (louder/softer)
x - on rhythm slash represents muted slash
o - on rhythm slash represents single note slash
Misc Legend
 
 -----------

| - bar
|| - double bar
||o - repeat start
o|| - repeat end
*| - double bar (ending)
: - bar (freetime)
$ - Segno
& - Coda
Tempo markers - = BPM(8/16=s8/s16), where s8 = swing 8ths, s16 = swing 16ths

Important: The song above is NOT stored on the Chordie server. The original song is hosted at www.guitaretab.com. Chordie works as a search engine and provides on-the-fly formatting. Chordie does not index songs against artists'/composers' will. To remove this song please click here.

Text color:
Chord color:
Chord grids: 
Font size:    
Page size: 

A5 B C5 D5 E5 G5
Rate #1 of 1 versions

Jango Player

Login - add to songbook

SHARE PAGE  




You need to log in to post comments