Guitar Tabs, Chords and Lyrics
Server problems seems to be fixed. Chordie has been experiencing problems with songs disappearing. These issues now seems to be fixed, but still verifying the fix. If you find anything strange, please email admin@chordie.com.


Some Stupid Tomorrow  Type O Negative

As recorded by Type O Negative
(From the 2007 Album DEAD AGAIN)
Transcribed by Whoabot
Words and Music by Type O Negative
Arranged by Type O Negative
Gtr I (B E A D F# B) - 'Guitar I'
Gtr II (B E A D F# B) - 'Guitar I (Chorus Effect, for MIDI only)'
Gtr III (B E A D F# B) - 'Guitar II'
Gtr IV (B E A D F# B) - 'Guitar II (Chorus Effect, for MIDI only)'
Intro
Q=74
N.C.
[4/4] Gtrs I, II, III, IV
PM
Wx7 H Q S S +E
 
 |------------|--------------------||
 |------------|--------------------||
 |------------|--------------------||
 |------------|--------------------||
 |------------|--------------------||
 |------------|------0--0s12-(12)\-||

[E5]Q. +E [G5]Q [D/F#]Q [G5]Q. +E [D5]Q [A/C#]Q [D5]Q. E [A5]Q [E/G#]Q [A5]Q. [A#b5]Q. [E5]Q
 
 ||------------------|-----------------|--------------|--------------|
 ||o-----------------|-----------------|--------------|--------------|
 ||------------------|-----------7--6--|-7------------|--------------|
 ||--2----(2)/-5--4--|-5----(5)/-7--7--|-7----0-7--6--|-7------------|
 ||o-2----(2)/-5--5--|-5----(5)/-5--4--|-5----0-7--7--|-7----7----7--|
 ||--0----(0)--3--2--|-3----(3)/-------|--------5--4--|-5----6----7--|

[C] [B] [A#] [A] [G#] [G] [F#5] [G5] [G#5] [A5] [A#5] [B5] [C5] [B5]  
 
 PM---------------------------|

Q. Q. Q Q. Q. Q E E E E E E E E E E E E E E Q
 
 |--------------|---------------|-----------------|---------------------||
 |--------------|---------------|-----------------|--------------------o||
 |--------------|---------------|-----------------|---------------------||
 |--------------|---------------|-----------------|---------------------||
 |-7----6----5--|-4----3----2\--|-4-4-5-5-6-6-7-7-|-8-8-9-9-10-10-9\---o||
 |-8----7----6--|-5----4----3\--|-2-2-3-3-4-4-5-5-|-6-6-7-7--8--8-7\----||

Pre-Verse
Q=184
[(A)]Gtrs I, II
E Q E E Q E E Q E E Q E
 
 |---------------------------|---------------------------|
 |---------------------------|---------------------------|
 |---------------------------|---------------------------|
 |--------------(7)-(7)--(7)-|--------------(7)-(7)--(7)-|
 |-(0)-(0)--(0)--------------|-(0)-(0)--(0)--------------|
 |---------------------------|---------------------------|

|
| Gtrs III, IV
| W W
 
 |---------------------------|---------------------------|
 |---------------------------|---------------------------|
 |---------------------------|---------------------------|
 |---------------------------|---------------------------|
 |---------------------------|---------------------------|
 |---------------------------|---------------------------|

[F5] |-[E5D#D5]3-|[C#5]
E Q E E Q E Q Q Q q Q
 
 |----------------------------|---------------|
 |----------------------------|---------------|
 |----------------------------|---------------|
 |--------------(7)--(7)--(7)-|-10-9-8-7--6\--|
 |-(0)-(0)--(0)---------------|--8-7-6-5--4\--|
 |----------------------------|---------------|

|
| |-3-|
| H E Q. Q Q Q Q Q
 
 |----------------------------|---------------|
 |----------------------------|---------------|
 |----------------------------|---------------|
 |---------------x------------|-10-9-8-7--6\--|
 |---------------x--[10]------|--8-7-6-5--4\--|
 |----------------------------|---------------|

[(A)] E Q E E Q E E Q E E Q E
 
 |---------------------------|---------------------------|
 |---------------------------|---------------------------|
 |---------------------------|---------------------------|
 |--------------(7)-(7)--(7)-|--------------(7)-(7)--(7)-|
 |-(0)-(0)--(0)--------------|-(0)-(0)--(0)--------------|
 |---------------------------|---------------------------|

|
| W +W
 
 |---------------------------|---------------------------|
 |---------------------------|---------------------------|
 |---------------------------|---------------------------|
 |--7------------------------|-(7)-----------------------|
 |--0------------------------|-(0)-----------------------|
 |---------------------------|---------------------------|

[F5] |-[E5D#D5]3-|[A5]
E Q E E Q E Q Q Q q Q
 
 |---------------------------|----------------||
 |---------------------------|----------------||
 |---------------------------|----------------||
 |--------------(7)-(7)--(7)-|-10-9-8-7--7\---||
 |-(0)-(0)--(0)--------------|--8-7-6-5--7\---||
 |---------------------------|----------------||

|
| |-3-|
| +W Q Q Q q Q
 
 |---------------------------|----------------||
 |---------------------------|----------------||
 |---------------------------|----------------||
 |-(7)-----------------------|-10-9-8-7--7\---||
 |-(0)-----------------------|--8-7-6-5--7\---||
 |---------------------------|----------------||

Verse
[A5] [F5] |-[E5D#D5]3-|[C#5]
E Q E E Q E E Q E E Q E E Q E E Q E Q Q Q q Q
 
 |-------------------|-------------------|-------------------|-----------------|
 |-------------------|-------------------|-------------------|-----------------|
 |-------------------|-------------------|-------------------|-----------------|
 |----------7-7--7---|----------7-7--7---|----------7-7--7---|-10-9-8-7--11\---|
 |-0-0--0------------|-0-0--0------------|-0-0--0------------|--8-7-6-5--------|
 |-------------------|-------------------|-------------------|-----------------|

|
 
 | PM------------------------------------------------------|

| |-3-|
| E Q S S E Q S S E Q S S E Q S S E Q S S E Q S S Q Q Q q Q
 
 |-------------------|-------------------|-------------------|-----------------|
 |-------------------|-------------------|-------------------|-----------------|
 |-------------------|-------------------|-------------------|-----------------|
 |-------------------|-------------------|-------------------|-10-9-8-7---6\---|
 |-7-7--7-7-7-7--7-7-|-7-7--7-7-7-7--7-7-|-7-7--7-7-7-7--7-7-|--8-7-6-5---4\---|
 |-5-5--5-5-5-5--5-5-|-5-5--5-5-5-5--5-5-|-5-5--5-5-5-5--5-5-|-----------------|

[A5] [F5] |-[E5D#D5]3-|
E Q E E Q E E Q E E Q E E Q E E Q E Q Q Q q Q
 
 |-------------------|-------------------|-------------------|-----------------||
 |-------------------|-------------------|-------------------|-----------------||
 |----------9-9--9---|----------9-9--9---|----------9-9--9---|-----------------||
 |----------7-7--7---|----------7-7--7---|----------7-7--7---|-10-9-8-7--10\---||
 |-7-7--7------------|-7-7--7------------|-7-7--7------------|--8-7-6-5--------||
 |-5-5--5------------|-5-5--5------------|-5-5--5------------|-----------------||

|
 
 | PM------------------------------------------------------|

| |-3-|
| E Q S S E Q S S E Q S S E Q S S E Q S S E Q S S Q Q Q q Q
 
 |-------------------|-------------------|-------------------|-----------------||
 |-------------------|-------------------|-------------------|-----------------||
 |-------------------|-------------------|-------------------|-----------------||
 |-------------------|-------------------|-------------------|-10-9-8-7--10\---||
 |-7-7--7-7-7-7--7-7-|-7-7--7-7-7-7--7-7-|-7-7--7-7-7-7--7-7-|--8-7-6-5--------||
 |-5-5--5-5-5-5--5-5-|-5-5--5-5-5-5--5-5-|-5-5--5-5-5-5--5-5-|-----------------||

Chorus
[D5] [E5] PM| [D5] [E5] PM| [D5] [E5] PM|
E a E E E E a E E E E a E E E E a Q.
 
 |-------------------------|------------------------|
 |-------------------------|------------------------|
 |-------------------------|------------------------|
 |-7-(7)s9-----7-(7)s9-----|-7-(7)s9----------------|
 |-5-(5)s7-0-0-5-(5)s7-0-0-|-5-(5)s7-0-0-7-(7)s6----|
 |---------0-0---------0-0-|---------0-0------------|

[D5] [E5] PM| [D5] [E5] PM| [D5] [E5] PM--[(A#)]|
E a E E E E a E E E E a E E E E Q.
 
 |-------------------------|---------------------|
 |-------------------------|---------------------|
 |-------------------------|---------------------|
 |-7-(7)s9-----7-(7)s9-----|-7-(7)s9-------------|
 |-5-(5)s7-0-0-5-(5)s7-0-0-|-5-(5)s7-0-0---5-----|
 |---------0-0---------0-0-|---------0-0-6-------|

[D5] [E5] PM| [D5] [E5] PM| [D5] [E5] PM|
E a E E E E a E E E E a E E E E a Q.
 
 |-------------------------|------------------------|
 |-------------------------|------------------------|
 |-------------------------|------------------------|
 |-7-(7)s9-----7-(7)s9-----|-7-(7)s9----------------|
 |-5-(5)s7-0-0-5-(5)s7-0-0-|-5-(5)s7-0-0-7-(7)s6----|
 |---------0-0---------0-0-|---------0-0------------|

[D5] [E5] PM| [D5] [E5] PM----[(A#)]| PM
E a E E E E a E E E E Q. E Q.
 
 |-------------------------|---------------||
 |-------------------------|---------------||
 |-------------------------|---------------||
 |-7-(7)s9-----7-(7)s9-----|---------------||
 |-5-(5)s7-0-0-5-(5)s7-0-0-|---5------5----||
 |---------0-0---------0-0-|-6------6------||

Pre-Verse
[A5]Gtrs I, II[F5] [E5D#D5] [C#5]
|-3-|
E Q E E Q E E Q E E Q E E Q E E Q E Q Q Q Q Q
 
 |-----------------|---------------|------------------|----------------|
 |-----------------|---------------|------------------|----------------|
 |-----------------|---------------|------------------|----------------|
 |----------7-7--7-|--------7-7--7-|--------7--7----7-|-10-9-8-7--6\---|
 |-0-0----0--------|-0-0--0--------|-0-0--0-----------|--8-7-6-5--4\---|
 |-----------------|---------------|------------------|----------------|

|
| Gtrs III, IV
| |-3-|
| q H. W H E Q. Q Q Q Q Q
 
 |-----------------|---------------|------------------|----------------|
 |-----------------|---------------|------------------|----------------|
 |-----------------|---------------|------------------|----------------|
 |-----------------|---------------|----------(7)\----|-10-9-8-7--6\---|
 |-7---------------|---------------|----------(7)\----|--8-7-6-5--4\---|
 |-5---------------|---------------|------------------|----------------|

[A5] [F5] |-[E5D#D5]3-|[A5]
E Q E E Q E E Q E E Q E E Q E E Q E Q Q Q q Q
 
 |-----------------|---------------|---------------|----------------||
 |-----------------|---------------|---------------|----------------||
 |-----------------|---------------|---------------|----------------||
 |----------7-7--7-|--------7-7--7-|--------7-7--7-|-10-9-8-7--7\---||
 |-0-0----0--------|-0-0--0--------|-0-0--0--------|--8-7-6-5--7\---||
 |-----------------|---------------|---------------|----------------||

|
| |-3-|
| q H. W W Q Q Q q Q
 
 |-----------------|---------------|---------------|----------------||
 |-----------------|---------------|---------------|----------------||
 |-----------------|---------------|---------------|----------------||
 |-----------------|---------------|---------------|-10-9-8-7--7\---||
 |-7---------------|---------------|---------------|--8-7-6-5--7\---||
 |-5---------------|---------------|---------------|----------------||

Verse
[A5] [F5] |-[E5D#D5]3-|[C#5]
E Q E E Q E E Q E E Q E E Q E E Q E Q Q Q q Q
 
 |-------------------|-------------------|-------------------|----------------|
 |-------------------|-------------------|-------------------|----------------|
 |-------------------|-------------------|-------------------|----------------|
 |----------7-7--7---|----------7-7--7---|----------7-7--7---|-10-9-8-7--6\---|
 |-0-0--0------------|-0-0--0------------|-0-0--0------------|--8-7-6-5--4\---|
 |-------------------|-------------------|-------------------|----------------|

|
| |-3-|
| E Q S S E Q S S E Q S S E Q S S E Q S S E Q S S Q Q Q q Q
 
 |-------------------|-------------------|-------------------|----------------|
 |-------------------|-------------------|-------------------|----------------|
 |-------------------|-------------------|-------------------|----------------|
 |-------------------|-------------------|-------------------|-10-9-8-7--6\---|
 |-7-7--7-7-7-7--7-7-|-7-7--7-7-7-7--7-7-|-7-7--7-7-7-7--7-7-|--8-7-6-5--4\---|
 |-5-5--5-5-5-5--5-5-|-5-5--5-5-5-5--5-5-|-5-5--5-5-5-5--5-5-|----------------|

[A5]E Q E E Q E E Q E E Q E
 
 |-------------------|-------------------|
 |-------------------|-------------------|
 |-------------------|-------------------|
 |----------7-7--7---|----------7-7--7---|
 |-0-0--0------------|-0-0--0------------|
 |-------------------|-------------------|

|
| E Q S S E Q S S E Q S S E Q S S
 
 |-------------------|-------------------|
 |-------------------|-------------------|
 |-------------------|-------------------|
 |-------------------|-------------------|
 |-7-7--7-7-7-7--7-7-|-7-7--7-7-7-7--7-7-|
 |-5-5--5-5-5-5--5-5-|-5-5--5-5-5-5--5-5-|

[F5] |-[E5D#D5]3-|
E Q E E Q E Q Q Q q Q
 
 |-------------------|------------------||
 |-------------------|------------------||
 |-------------------|------------------||
 |----------7-7--7---|-10-9-8-7--/10\---||
 |-0-0--0------------|--8-7-6-5---------||
 |-------------------|------------------||

|
| |-3-|
| E Q S S E Q S S Q Q Q q Q
 
 |-------------------|------------------||
 |-------------------|------------------||
 |-------------------|------------------||
 |-------------------|-10-9-8-7--/10\---||
 |-7-7--7-7-7-7--7-7-|--8-7-6-5---------||
 |-5-5--5-5-5-5--5-5-|------------------||

Chorus
[D5]Gtrs I[E5], II, [D5]III, I[E5]V[D5] [E5]
PM| PM| PM|
E a E E E E a E E E E a E E E E a Q.
 
 |-------------------------|------------------------|
 |-------------------------|------------------------|
 |-------------------------|------------------------|
 |-7-(7)s9-----7-(7)s9-----|-7-(7)s9----------------|
 |-5-(5)s7-0-0-5-(5)s7-0-0-|-5-(5)s7-0-0-7-(7)s6----|
 |---------0-0---------0-0-|---------0-0------------|

[D5] [E5] PM| [D5] [E5] PM| [D5] [E5] PM--[(A#)]| PM
E a E E E E a E E E E a E E E E Q E
 
 |-------------------------|----------------------|
 |-------------------------|----------------------|
 |-------------------------|----------------------|
 |-7-(7)s9-----7-(7)s9-----|-7-(7)s9--------------|
 |-5-(5)s7-0-0-5-(5)s7-0-0-|-5-(5)s7-0-0---5------|
 |---------0-0---------0-0-|---------0-0-6----6---|

[D5] [E5] PM| [D5] [E5] PM| [D5] [E5] PM|
E a E E E E a E E E E a E E E E a Q.
 
 |-------------------------|------------------------|
 |-------------------------|------------------------|
 |-------------------------|------------------------|
 |-7-(7)s9-----7-(7)s9-----|-7-(7)s9----------------|
 |-5-(5)s7-0-0-5-(5)s7-0-0-|-5-(5)s7-0-0-7-(7)s6----|
 |---------0-0---------0-0-|---------0-0------------|

[D5] [E5] PM| [D5] [E5] PM----[(A#)]| PM
E a E E E E a E E E E Q. E Q.
 
 |-------------------------|---------------||
 |-------------------------|---------------||
 |-------------------------|---------------||
 |-7-(7)s9-----7-(7)s9-----|---------------||
 |-5-(5)s7-0-0-5-(5)s7-0-0-|---5------5\---||
 |---------0-0---------0-0-|-6------6------||

"Some...Stupid Tomorrow"
Q=131
N.C. C#5
Gtrs I, II
<
Wx4 W +W +W +W
 
 |------------|-----------|-------------|-------------|---------|
 |------------|-----------|-------------|-------------|---------|
 |------------|-13--------|-(13)--------|-(13)--------|-(13)----|
 |------------|-11--------|-(11)--------|-(11)--------|-(11)----|
 |------------|-----------|-------------|-------------|---------|
 |------------|-----------|-------------|-------------|---------|

|
| Gtrs III, IV
| <
| Wx4 W +W +W +W
 
 |------------|-----------|-------------|-------------|---------|
 |------------|-----------|-------------|-------------|---------|
 |------------|-----------|-------------|-------------|---------|
 |------------|-----------|-------------|-------------|---------|
 |------------|--4--------|--(4)--------|--(4)--------|--(4)----|
 |------------|--4--------|--(4)--------|--(4)--------|--(4)----|

Q=133
[C#5] >
W +W +W +W
 
 ||------------|-------------|-------------|---------|
 ||o-----------|-------------|-------------|---------|
 ||--13--------|-(13)--------|-(13)--------|-(13)----|
 ||--11--------|-(11)--------|-(11)--------|-(11)----|
 ||o-----------|-------------|-------------|---------|
 ||------------|-------------|-------------|---------|

|
| W +W +W +W
 
 ||------------|-------------|-------------|---------|
 ||o-----------|-------------|-------------|---------|
 ||--13--------|-(13)--------|-(13)--------|-(13)----|
 ||--11--------|-(11)--------|-(11)--------|-(11)----|
 ||o-----------|-------------|-------------|---------|
 ||------------|-------------|-------------|---------|

>
W +W +W +W
 
 |-----------|-------------|-------------|---------||
 |-----------|-------------|-------------|---------||
 |-13--------|-(13)--------|-(13)--------|-(13)----||
 |-11--------|-(11)--------|-(11)--------|-(11)----||
 |-----------|-------------|-------------|---------||
 |-----------|-------------|-------------|---------||

|
| W +W +W +W
 
 |-----------|-------------|-------------|---------||
 |-----------|-------------|-------------|---------||
 |-13--------|-(13)--------|-(13)--------|-(13)----||
 |-11--------|-(11)--------|-(11)--------|-(11)----||
 |-----------|-------------|-------------|---------||
 |-----------|-------------|-------------|---------||

"Yesterday..."
[C#5] [F#5]  
[E] [E] [E] [E] [E] [E] [E] [E] [E] [E] [E] [E] [E] [E] [E] [E]  
 
 |--------------------------|----/14-14-14-14-14-14-14-|
 |-/14-14-14-14-14-14-14-14-|-14-/14-14-14-14-14-14-14-|
 |-/13-13-13-13-13-13-13-13-|-13-----------------------|
 |--------------------------|--------------------------|
 |--------------------------|--------------------------|
 |--------------------------|--------------------------|

[C#5] [E5]  
[E] [E] [E] [E] [E] [E] [E] [E] [E] [E] [E] [E] [E] [E] [E] [E]  
 
 |-14-/16-16-16-16-16-16-16-|-16\-12-12-12-12-12-12-12--|
 |-14-/14-14-14-14-14-14-14-|-14\-12-12-12-12-12-12-12--|
 |--------------------------|---------------------------|
 |--------------------------|---------------------------|
 |--------------------------|---------------------------|
 |--------------------------|---------------------------|

[C#5] [F#5]  
[E] [E] [E] [E] [E] [E] [E] [E] [E] [E] [E] [E] [E] [E] [E] [E]  
 
 |-12\----------------------|----/14-14-14-14-14-14-14-|
 |-12\-14-14-14-14-14-14-14-|-14-/14-14-14-14-14-14-14-|
 |-----13-13-13-13-13-13-13-|-13-----------------------|
 |--------------------------|--------------------------|
 |--------------------------|--------------------------|
 |--------------------------|--------------------------|

H=H Q=148
[C#5] [E5]  
[E] [E] [E] [E] [E] [E] [E] [E] [E] [E] [E] [E] [E] [E] [E] [E]  
 
 |-14-/16-16-16-16-16-16-16-|-16\-12-12-12-12-12-12-12---||
 |-14-/14-14-14-14-14-14-14-|-14\-12-12-12-12-12-12-12--o||
 |--------------------------|----------------------------||
 |--------------------------|----------------------------||
 |--------------------------|---------------------------o||
 |--------------------------|----------------------------||

Outro
Q=74
[E5]Gtrs I, II[G5], I[D/F#]II, I[G5]V[D5] [A/C#] [D5] [A5] [E/G#] [A5] [A#b5] [E5]
Q. +E Q Q Q. +E Q Q Q. E Q Q Q. Q. Q
 
 ||------------------|-----------------|--------------|--------------|
 ||o-----------------|-----------------|--------------|--------------|
 ||------------------|-----------7--6--|-7------------|--------------|
 ||--2----(2)/-5--4--|-5----(5)/-7--7--|-7----0-7--6--|-7------------|
 ||o-2----(2)/-5--5--|-5----(5)/-5--4--|-5----0-7--7--|-7----7----7--|
 ||--0----(0)--3--2--|-3----(3)/-------|--------5--4--|-5----6----7--|

[C] [B] [A#] [A] [G#] [G] [F#5] [G5] [G#5] [A5] [A#5] [B5] [C5] [B5]  
 
 PM---------------------------|

Q. Q. Q Q. Q. Q E E E E E E E E E E E E E E Q
 
 |--------------|---------------|-----------------|---------------------||
 |--------------|---------------|-----------------|--------------------o||
 |--------------|---------------|-----------------|---------------------||
 |--------------|---------------|-----------------|---------------------||
 |-7----6----5--|-4----3----2\--|-4-4-5-5-6-6-7-7-|-8-8-9-9-10-10-9\---o||
 |-8----7----6--|-5----4----3\--|-2-2-3-3-4-4-5-5-|-6-6-7-7--8--8-7\----||

Q=184
[(A)]Gtrs I, II
E Q E E Q E E Q E E Q E
 
 |---------------------------|---------------------------|
 |---------------------------|---------------------------|
 |---------------------------|---------------------------|
 |--------------(7)-(7)--(7)-|--------------(7)-(7)--(7)-|
 |-(0)-(0)--(0)--------------|-(0)-(0)--(0)--------------|
 |---------------------------|---------------------------|

|
| Gtrs III, IV
| W W
 
 |---------------------------|---------------------------|
 |---------------------------|---------------------------|
 |---------------------------|---------------------------|
 |---------------------------|---------------------------|
 |---------------------------|---------------------------|
 |---------------------------|---------------------------|

[F5] |-[E5D#D5]3-|[C#5]
E Q E E Q E Q Q Q Q Q
 
 |----------------------------|---------------|
 |----------------------------|---------------|
 |----------------------------|---------------|
 |--------------(7)--(7)--(7)-|-10-9-8-7--6\--|
 |-(0)-(0)--(0)---------------|--8-7-6-5--4\--|
 |----------------------------|---------------|

|
| |-3-|
| H E Q. Q Q Q Q Q
 
 |----------------------------|---------------|
 |----------------------------|---------------|
 |----------------------------|---------------|
 |---------------x------------|-10-9-8-7--6\--|
 |---------------x--[10]------|--8-7-6-5--4\--|
 |----------------------------|---------------|

[(A)] E Q E E Q E E Q E E Q E
 
 |---------------------------|---------------------------|
 |---------------------------|---------------------------|
 |---------------------------|---------------------------|
 |--------------(7)-(7)--(7)-|--------------(7)-(7)--(7)-|
 |-(0)-(0)--(0)--------------|-(0)-(0)--(0)--------------|
 |---------------------------|---------------------------|

|
| W +W
 
 |---------------------------|---------------------------|
 |---------------------------|---------------------------|
 |---------------------------|---------------------------|
 |--7------------------------|-(7)-----------------------|
 |--0------------------------|-(0)-----------------------|
 |---------------------------|---------------------------|

[F5] |-[E5D#D5]3-|[A5]
E Q E E Q E Q Q Q q Q
 
 |---------------------------|----------------*|
 |---------------------------|----------------*|
 |---------------------------|----------------*|
 |--------------(7)-(7)--(7)-|-10-9-8-7--7\---*|
 |-(0)-(0)--(0)--------------|--8-7-6-5--7\---*|
 |---------------------------|----------------*|

|
| |-3-|
| +W Q Q Q q Q
 
 |---------------------------|----------------*|
 |---------------------------|----------------*|
 |---------------------------|----------------*|
 |-(7)-----------------------|-10-9-8-7--7\---*|
 |-(0)-----------------------|--8-7-6-5--7\---*|
 |---------------------------|----------------*|

Duration Legend
 
 ---------------
 W - whole; H - half; Q - quarter; E - 8th; S - 16th; T - 32nd; X - 64th; a - acciaccatura

+ - note tied to previous; . - note dotted; .. - note double dotted
Uncapitalized letters represent notes that are staccato (1/2 duration)
Irregular groupings are notated above the duration line
Duration letters will always appear directly above the note/fret number it represents the
duration for. Duration letters with no fret number below them represent rests. Multi-
bar rests are notated in the form Wxn, where n is the number of bars to rest for. Low
melody durations appear below the staff
Tablature Legend
 
 ----------------

h - hammer-on
p - pull-off
b - bend
pb - pre-bend
r - bend release (if no number after the r, then release immediately)
/\ - slide into or out of (from/to "nowhere")
s - legato slide
S - shift slide
- natural harmonic
(n) - artificial harmonic
n(n) - tapped harmonic
~ - vibrato
tr - trill
T - tap
TP - trem. picking
PM - palm muting
\n/ - tremolo bar dip; n = amount to dip
\n - tremolo bar down
n/ - tremolo bar up
/n\ - tremolo bar inverted dip
= - hold bend; also acts as connecting device for hammers/pulls
- volume swell (louder/softer)
x - on rhythm slash represents muted slash
o - on rhythm slash represents single note slash
Misc Legend
 
 -----------

| - bar
|| - double bar
||o - repeat start
o|| - repeat end
*| - double bar (ending)
: - bar (freetime)
$ - Segno
& - Coda
Tempo markers - = BPM(8/16=s8/s16), where s8 = swing 8ths, s16 = swing 16ths

Important: The song above is NOT stored on the Chordie server. The original song is hosted at www.guitaretab.com. Chordie works as a search engine and provides on-the-fly formatting. Chordie does not index songs against artists'/composers' will. To remove this song please click here.

Text color:
Chord color:
Chord grids: 
Font size:    
Page size: 

A A# A#5 A/C# A5 B B5 C C#5 C5 D/F# D5 E E/G# E5 F#5 F5 G G# G#5 G5
Rate #1 of 2 versions

Login - add to songbook

SHARE PAGE  




You need to log in to post comments