Guitar Tabs, Chords and Lyrics
Server problems seems to be fixed. Chordie has been experiencing problems with songs disappearing. These issues now seems to be fixed, but still verifying the fix. If you find anything strange, please email admin@chordie.com.


Zooropa  U2

There are many effects on this song. The ones I use may not be the correct ones, but
sound similar:
- 100% Tremolo
- 100% Sweep echo
Clean, no distortion
Chords:
[Eb] [Db]  
 
 E|-6-----|--4--|
 B|-8-----|--6--|
 G|-8-----|--6--|
 D|-8-----|--6--|
 A|-6-----|--4--|
 E|-x-----|--x--|

Intro:
 
 E|------------------------------------------------------------------------|
 B|-------------------------11-x-11-11-11?11-x-x-x-------------------------|
 G|--x--x?8?x?8?x----------------------------------8-x?8-x-----------------|
 D|------------------------------------------------------------8-8-8-8-x-x-|
 A|------------------------------------------------------------------------|
 E|------------------------------------------------------------------------|

Verse:
 
 E|------------------------------------|----------------------------|
 B|-14-x-14-x---------14-x-14-x--------|-9-x-9-x-----9-x-9-x--------|
 G|--------------15---------------15---|---------10-----------10----|
 D|------------------------------------|----------------------------|
 A|------------------------------------|----------------------------|
 E|------------------------------------|----------------------------|

Zooropa... Vorsprung durch Technik?
 
 E|-------------------------------------------------|
 B|-------------------------------------------------|
 G|-x-x-12-x-12-x-12----x-x-12-x-12-x-12------------|
 D|-------------------------------------------------|
 A|-------------------------------------------------|
 E|-------------------------------------------------|

Zooropa... be all that you can be?
 
 E|-------------------------------------------------|
 B|-------------------------------------------------|
 G|-x-x-12-x-12-x-12----x-x-12-x-12-x-12------------|
 D|-------------------------------------------------|
 A|-------------------------------------------------|
 E|-------------------------------------------------|

Be a winner
 
 E|-------------------------------------|
 B|---x-x-13-x-13-x-13------------------|
 G|---------------------------------- --|
 D|-------------------------------------|
 A|-------------------------------------|
 E|-------------------------------------|

Eat to get slimmer
 
 E|-------------------------------------|
 B|---x-x-14-x-14-x-14------------------|
 G|---------------------------------- --|
 D|-------------------------------------|
 A|-------------------------------------|
 E|-------------------------------------|

For the bridge go back to intro:
 
 E|-------------------------------------------------------------------------|
 B|-------------------------11-x-11-11-11?11-x-x-x--------------------------|
 G|--x--x?8?x?8?x----------------------------------8-x?8-x------------------|
 D|--------------------------------------------------------8----8-8-8-8-x-x-|
 A|-------------------------------------------------------------------------|
 E|-------------------------------------------------------------------------|

Starting from ?And I have no compass...?, there are only chords: Eb, Db and this riff
through the rest of the song:
 
 E|----------11------------------|
 B|---7/11-------11--------------|
 G|--------------------------- --|
 D|------------------------------|
 A|------------------------------|
 E|------------------------------|

[Eb]And I have no compass
[Eb]And I have no map
[Db]And I have no reasons
[Eb]No reasons to get back
[Eb]Don't worry baby, it'll be alright
[Eb]You got the right shoes
[Eb]To get you through the night
[Eb]It's cold outside, but brightly lit
[Eb]Skip the subway
[Eb]Let's go to the [Db]overground
[Db]Get your head out of the mud bab[Eb]y
[Db]Put flowers in the mud baby
[Eb]Overground

Important: The song above is NOT stored on the Chordie server. The original song is hosted at www.guitaretab.com. Chordie works as a search engine and provides on-the-fly formatting. Chordie does not index songs against artists'/composers' will. To remove this song please click here.

Text color:
Chord color:
Chord grids: 
Font size:    
Page size: 

Db Eb
Rate #1 of 5 versions

Jango Player

Login - add to songbook

SHARE PAGE  



You need to log in to post comments