Guitar Tabs, Chords and Lyrics
Major upgrade!! After one year development the new version of Chordie is now online! Please give feedback.


Frustrated  Union 13

Band: Union 13
Song: Frusrated
Album: Why are we destroying ourselves
Transcripted by: Jesus Cano
Date: May 30, 2003
For this song there are two guitars, especially in the intro you can tell right
away that there are two guitars.
INTRO
GUITAR ONE
 
 E|-----------------------------------------------------------------------------
 B|--5-5-5-7-5--5/3-3-3-3-3/2--2----5-5-5-2-5-5-5-3-1-1-------------------------
 G|-----------------------------------------------------2-----------------------
 D|-----------------------------------------------------------------------------
 A|-----------------------------------------------------------------------------
 E|-----------------------------------------------------------------------------

GUITAR TWO
just goes along with some smooth strumming this part contains notes such as the
following (A,Am,D,E)If you listen the song you'll know when to start
strumming.First I will show you the notes then I will show you the order to play the notes.
[A] [Am] [D] [E] 
 
 E|--0--| E|--0--| E|--2--| E|--0--|
 B|--2--| B|--1--| B|--3--| B|--0--|
 G|--2--| G|--2--| G|--2--| G|--1--|
 D|--2--| D|--2--| D|--0--| D|--2--|
 A|--0--| A|--0--| A|--0--| A|--2--|
 E|--0--| E|--0--| E|--0--| E|--0--|

You will start strumming on the first 0:04 seconds of the song ok
guitar two will start by playing the following notes they are in order.
(E D A E D Am) The last note you will be playing the following power chord
E|---
B|---
G|-2-
D|-2-
A|-0-
E|---
Then after that you strum the following extremely fast just 10x this will be
THE FAST INTRO TO THE SINGING PART
E|---
B|---
G|---
D|-7-
A|-7-
E|-5-
Then the singing will begin. this will be THE FIRST VERSE. it will be played 4x.
each chord will be played 8x.
 
 E|-----------------------
 B|-----------------------
 G|---------------7-------
 D|-7------2------7-----7-
 A|-7------2------5-----7-
 E|-5------0------------5-

THE SECOND VERSE. The first two chords will be played 6x then
the next one 12x.This verse will be played 2x
 
 E|----------------
 B|----------------
 G|-9------7-------
 D|-9------7-----7-
 A|-7------5-----7-
 E|--------------5-

THE THIRD VERSE
 
 E|---------------------
 B|---------------------
 G|-9-9-9-9-9-7-7-7-7-7-
 D|-9-9-9-9-9-7-7-7-7-7-
 A|-7-7-7-7-7-5-5-5-5-5-
 E|--------------------- Play that part twice then play the following
 E|-----------------------
 B|-----------------------
 G|-9-9-9-9-9-7-7-5-5-----
 D|-9-9-9-9-9-7-7-5-5--7--
 A|-7-7-7-7-7-5-5-3-3--7--
 E|--------------------5--

Then after that do THE FAST INTRO TO THE SINGING PART..Then play the first verse 4x.
This is the verse where theres a chorus saying "frustrated".PLAY IT TWICE
 
 E|----------------------------------------
 B|----------------------------------------
 G|-9-9-9-9-9-7-7-7-7-7--------------------
 D|-9-9-9-9-9-7-7-7-7-7-7-7-7-7-7-7-7-7-7-7
 A|-7-7-7-7-7-5-5-5-5-5-7-7-7-7-7-7-7-7-7-7
 E|---------------------5-5-5-5-5-5-5-5-5-5

Then after that play THE THIRD VERSE then just jump right to THE FIRST VERSE it
will be played 4x the after that play THE SECOND VERSE exactly the same then play
THE THIRD VERSE exactly the same too.
 
 --------------------------------------------------------------------------------

LYRICS sing in the order
THE FIRST VERSE
You can say im young and green behind the ears
way too young to know the meaning real tears
I've lived in government projects for more than half my life
the stories they are true i've managed to survive.
THE SECOND VERSE
"what did you say about, where i live
it rains bullets in this environment
what i know didnt just come to me
im a witness to civil war mentality
THE THIRD VERSE
the first time i saw death
man i was only five
the young hood lay on the ground this picture changed my life
"I aint gonna go out that way!!"
"I aint gonna go out that way!!"
THE FOURTH VERSE
frustrated frustrated
where im gonna go
nobody knows frustrated
THE FIFTH VERSE
frustrated will they shoot me to death or
will they stab me instead
well i just know everybody knows
"I aint gonna go out that way!!"
"I aint gonna go out that way!!"
THE SIXTH VERSE
"what did you say about where i live
it rains bullets in this environment
what i know didnt just come to me
im a witness to civil war mentality...
THATS THE END OF THE SONG HOPE ENJOY THIS SONG

Important: The song above is NOT stored on the Chordie server. The original song is hosted at www.guitaretab.com. Chordie works as a search engine and provides on-the-fly formatting. Chordie does not index songs against artists'/composers' will. To remove this song please click here.

Text color:
Chord color:
Chord grids: 
Font size:    
Page size: 

A Am D E
Rate #0 of 2 versions

Jango Player

Login - add to songbook

SHARE PAGE  




You need to log in to post comments