Guitar Tabs, Chords and Lyrics
Update 25:10. 13:00. Site is back up running again. Songbooks are recovered. Woring on getting search back up..


Against the Grain   Unsane

 
 ----------------

 


 Tuning = D A D G B E


 Tempo ~ 88bpm


 

 
 ----------------

 


 \n/ - tremolo bar dip; n = amount to dip


 / - slide into


 

 
 ----------------

 


 See appendix for order of the riffs, if you don't want to figure it out yourself.


 

 
 ----------------

 


 


 Intro ;)


 

 
 |----------------|
 |----------------|
 |----------------|
 |----------------|
 |----------------|
 |--------------0-|

 


 


 Riff 1 \1/


 

 
 |----------------|-------1----------|
 |----------------|-------3----------|
 |----------------|-------2----------|
 |----------------|-------0----------|
 |----3-----3---3-|-------0----------|
 |3-6---2-5---1---|-0-0-0-0----------|

 


 


 \1/


 

 
 |-----------------|-------1-----------|
 |-----------------|-------3-----------|
 |-----------------|-------2-----------|
 |-----------------|-------0-----------|
 |-----3---3-3---3-|-------0-----------|
 |-3-6---6-----1---|-0-0-0-0-----------|

 


 


 Riff 2


 

 
 |--------------------------------------------------|
 |--------------------------------------------------|
 |--------------------------------------------------|
 |--10-10-10-10-10-10-10-10-10-10-10-10-10-10-10-10-|
 |--------------------------------------------------|
 |--------------------------------------------------|
 |--------------------------------------------------|
 |--------------------------------------------------|
 |--------------------------------------------------|
 |-12-12-12-10-10-10-12-12-13-13-13-12-12-12-10-10--|
 |--------------------------------------------------|
 |--------------------------------------------------|
 |-------------------------------------------------|
 |-------------------------------------------------|
 |-12-12-12-12-12-12-10-10-10-12-12-12-13-13-13-13-|
 |-------------------------------------------------|
 |-------------------------------------------------|
 |-------------------------------------------------|
 |--------------------------------------------------|
 |--------------------------------------------------|
 |-12-12-10-10-12-12-10-10-10-10-12-12-10-10-10-10--|
 |--------------------------------------------------|
 |--------------------------------------------------|
 |--------------------------------------------------|

 


 


 Riff 3


 

 
 |----------------|-----------------|
 |----------------|-----------------|
 |----------------|-----------------|
 |--11---10---8-5-|-8-8-8-5-(5)-----|
 |--11---10---8-5-|-8-8-8-5-(5)-----|
 |--11---10---8-5-|-8-8-8-5-(5)-----|

 


 


 Riff 4


 

 
 |---------------|------------------|
 |---------------|------------------|
 |---------------|------------------|
 |-11---10---8-5-|-8-8-8-8-8-8-8-8--|
 |-11---10---8-5-|-8-8-8-8-8-8-8-8--|
 |-11---10---8-5-|-8-8-8-8-8-8-8-8--|

 


 


 Riff 5


 

 
 |-----------------|--------------|----------------|--------------------|
 |-----------------|--------------|----------------|--------------------|
 |-----------------|--------------|----------------|--------------------|
 |--3-5-/8-8--8--3-|-(3)-5-5------|-3-5-/8-8--8--3-|-(3)-11-11----10----|
 |--3-5-/8-8--8--3-|-(3)-5-5------|-3-5-/8-8--8--3-|-(3)-11-11----10----|
 |--3-5-/8-8--8--3-|-(3)-5-5------|-3-5-/8-8--8--3-|-(3)-11-11----10----|
 ----------------

 


 Appendix 1: Order of riffs within the song


 

 
 ----------------

 


 Riff x played x times


 Intro 1


 [1] [4]  


 [2] [2]  


 [1] [2]  


 [3] [3]  


 [4] [1]  


 [2] [2]  


 [1] [2]  


 [3] [3]  


 [4] [1]  


 [5] [2]  


 [2] [2]  


 [1] [2]  


 [3] [3]  


 [4] [1]  


 [5] [2]  


 


 Appendix 2: Author's comment


 

 
 ----------------


Important: The song above is NOT stored on the Chordie server. The original song is hosted at www.guitaretab.com. Chordie works as a search engine and provides on-the-fly formatting. Chordie does not index songs against artists'/composers' will. To remove this song please click here.

This song is displayed as text-only. Transposing and tuning is only available for chordpro-songs.
Rate #0 of 2 versions

Login - add to songbook

SHARE PAGE  




You need to log in to post comments