Guitar Tabs, Chords and Lyrics
Server problems seems to be fixed. Chordie has been experiencing problems with songs disappearing. These issues now seems to be fixed, but still verifying the fix. If you find anything strange, please email admin@chordie.com.


Rising Blood   Unwound

 
 |------x-x-------x-x-----x-x-----x-x-------x-x-------x-x-----x-x-----x-x-|
 |10-10-x-x-10-10-x-x-9-9-x-x-9-9-x-x-10-10-x-x-10-10-x-x-9-9-x-x-9-9-x-x-|
 |------x-x-------x-x-----x-x-----x-x-------x-x-------x-x-----x-x-----x-x-|
 |------x-x-------x-x-----x-x-----x-x-------x-x-------x-x-----x-x-----x-x-|
 |-8-8--x-x--8-8--x-x-8-8-x-x-8-8-x-x--8-8--x-x--8-8--x-x-8-8-x-x-8-8-x-x-|
 |------x-x-------x-x-----x-x-----x-x-------x-x-------x-x-----x-x-----x-x-|

 


 lyric: "this is the dream..."


 


 [bass]  

 
 |------------------------------------------------------------------------|
 |-3-3-------3-3------3-3-----3-3------3-3-------3-3------3-3-----3-3-----|
 |------------------------------------------------------------------------|
 |------1-1-------1-1-----1-1-----1-1-------1-1-------1-1-----1-1-----1-1-|

 


 


 part B


 guitar


 

 
 |-----x-x-----x-x-----x-x-----x-x-----x-x-----x-x-----------------|
 |-----x-x-----x-x-----x-x-----x-x-----x-x-----x-x-----------------|
 |-7-7-x-x-7-7-x-x-6-6-x-x-6-6-x-x-5-5-x-x-5-5-x-x-----------------|
 |-----x-x-----x-x-----x-x-----x-x-----x-x-----x-x-5s6-6-6-6-6-6-6-|
 |-5-5-x-x-5-5-x-x-4-4-x-x-4-4-x-x-3-3-x-x-3-3-x-x-----------------|
 |-----x-x-----x-x-----x-x-----x-x-----x-x-----x-x-3s4-4-4-4-4-4-4-|

 


 lyric: "do you wanna feel now..."


 


 [bass]  

 
 |-----------------------------------------------------------------|
 |-----------------------------------------------------------------|
 |-----------------------------------------------------------------|
 |-5-------5-------5-------5-------4-------4-------4-------4-------|

 


 


 part C


 guitar


 

 
 |-------------------------------------------------------------------------------------------------|
 |-------------------------------------------------------------------------------------------------|
 |-10-10-12-12-12-12-12-12-12-12-12-12-12-12-12-12-12-12-12-12-12-12-12-12-12-12-12-12-12-12-12-12-|
 |-------------------------------------------------------------------------------------------------|
 |-8--8--10-10-10-10-10-10-10-10-10-10-10-10-10-10-10-10-10-10-10-10-10-10-10-10-10-10-10-10-10-10-|
 |-------------------------------------------------------------------------------------------------|

 


 lyric: "i do..."


 


 [bass]  

 
 |-------------------------------------------------------------------------------------------------|
 |-------------------------------------------------------------------------------------------------|
 |-------------------------------------------------------------------------------------------------|
 |-1-----1-----1-----1-----1-----1-----1-----1-----1-----1-----1-----1-----1-----1-----1-----1-----|

 


 


 part D


 guitar


 rake the strings violently with your pick while you hold your finger above the fourth fret to make


 high-pitched harmonics. then move to the second fret for higher-sounding harmonics every other time.


 


 [bass]  

 
 |-----------------------------------------------------------------|
 |-----------------------------------------------------------------|
 |-----------------------------------------------------------------|
 |-5-------5-------5-------5-------4-------4-------4-------4-------|


Important: The song above is NOT stored on the Chordie server. The original song is hosted at www.guitaretab.com. Chordie works as a search engine and provides on-the-fly formatting. Chordie does not index songs against artists'/composers' will. To remove this song please click here.

This song is displayed as text-only. Transposing and tuning is only available for chordpro-songs.
Rate #1 of 3 versions

Jango Player

Login - add to songbook

SHARE PAGE  



You need to log in to post comments