Guitar Tabs, Chords and Lyrics
Major upgrade!! After one year development the new version of Chordie is now online! Please give feedback.


Free Me  Uriah Heep

x 3 2[C] 0 1 0 x x [D]0 2 3 2 x 2 [Bm]4 4 3 2 0 2 [Em]2 0 0 0
F#m G A C(type 2)
2 4 4 2 2 2 3 5 5 4 3 3 5 7 7 6 5 5 x 3 2 0 1 x
[Gsus4/B]  
x 2 0 0 1 x
b - bend
r - bend release
Guitar Intro:
[D]  
 
 e|-------------2----|
 B|-------------3----|
 G|-------------2----|
 D|-------4-----0----|
 A|-2-4-5---5-0------|
 E|------------------|

(Free me...free me..)
Chorus:
Fr[D]ee me, fr[Bm]ee me
Why won't you fr[Em]ee me
Free me from your sp[Bm]ell
Come on and fr[D]ee me
Why won't you fr[Bm]ee me
Come on and fr[Em]ee me
Free me from your sp[Bm]ell
Guitar Intro:
[D]  
 
 e|-------------2----|
 B|-------------3----|
 G|-------------2----|
 D|-------4-----0----|
 A|-2-4-5---5-0------|
 E|------------------|

Verse:
Wh[D]y should I worry
That you m[F#m]ight not love me
You're not the [G]only love
That I've ever h[D]ad
Your sw[F#m]eet memory
Will always c[Bm]omfort me
So wh[G]y should I be feeling s[A]ad
verse:
As far as I can tell
You knew so well
I was always
At the end of the line
I've loved you as much
As any man can
But not enough
To make you mine
Bridge:
S[G]o long, e[F#m]asy r[Em]ider
C(type 2) Gsus4/B D
I know I'll miss you for awhile
But s[G]ooner or later
[A]I know that I'll f[Bm]orget you
And I tell you babe
Chorus:
Free me
Come on and free me
Why won't you free me
Free me from your spell
Oh babe, free me
Why won't you free me
Come on and free me
Free me from your spell
guitar intro:
 
 e|-------------2----|
 B|-------------3----|
 G|-------------2----|
 D|-------4-----0----|
 A|-2-4-5---5-0------|
 E|------------------|

Guitar Solo:
[F#m] [G] [D]  
 
 e|--------------------------------|
 B|-7--8-10-12b14r12-----15--15-17-|
 G|-------------------14-----------|
 D|--------------------------------|
 A|--------------------------------|
 E|--------------------------------|

Double lead from here
[F#m] [Em] [D]  
 
 e|----------------------------|
 B|-17b19r17-15----------------|
 G|-------------16b18r16-14-11-|
 D|----------------------------| 


Important: The song above is NOT stored on the Chordie server. The original song is hosted at www.guitaretab.com. Chordie works as a search engine and provides on-the-fly formatting. Chordie does not index songs against artists'/composers' will. To remove this song please click here.

Text color:
Chord color:
Chord grids: 
Font size:    
Page size: 

A Bm C D Em F#m G Gsus4/B
Rate #1 of 3 versions

Jango Player

Login - add to songbook

SHARE PAGE  




You need to log in to post comments