Guitar Tabs, Chords and Lyrics
Major upgrade!! After one year development the new version of Chordie is now online! Please give feedback.


A Thousand Miles  Vanessa Carlton

Capo: 4th fret
Intro:
[Cadd9] [D] [G]  
 
 E-----3-----3--2-----2----------------------------|
 B-----------------------3-------------0-----------|
 G--0-----0--------2-------------------------2p0---|
 D--------------0----------------------------------|
 A-----3-----------------2-------------3-----------|
 E-------------------------------------------------|

[Cadd9] [D] [G]  
 
 E-----3-----3--2-----2----------------------------|
 B-----------------------3----3---3----0h1p0-------|
 G--------0--------2--------0---0---0---------0----|
 D--------------0----------------------------------|
 A-----3-----------------2-------------3-----------|
 E-------------------------------------------------|

[Cadd9] [D] [G]  
 
 E-----3-----3--2-----2----------------------------|
 B-----------------------3-------------0-----------|
 G--------0--------2-------------------------2p0---|
 D--------------0----------------------------------|
 A-----3-----------------2-------------3-----------|
 E-------------------------------------------------|

[Em] [Cadd9]  
 
 E-------------------------------------------------|
 B-----0-------0----------3------------------------|
 G--------2p0-----2p0------------------------------|
 D-------------------------------------------------|
 A-----2------------------3------------------------|
 E-------------------------------------------------|

Chords used:
Cadd9 (x32033)
D (xx0232)
G (320033)
Em (022000)
Verses:
[Cadd9] [D] [G] [Cadd9]  
 
 E----3---2------3---3------|
 B----3---3------3---3------|
 G----0---2------0---0------|
 D--------0-----------------|
 A----3----------2---3------|
 E--------------------------|

Verse 1:
Making my way downtown
Walking fast
Faces passed
And I'm home bound
Staring blankly ahead
Just making my way
Making my way
Through the crowd
Pre-chorus:
[Cadd9] [G] [D] And I need you
[Cadd9] [G] [D] And I miss you
[Cadd9] [G] [D] And now I [Cadd9]wooo-n[D]der....
Chorus:
If [Cadd9]I could [D]fall [G]into the [Cadd9]sky
Do you think [D]time would [G]pass me [Cadd9]by
'Cause you know [D]I'd walk a [G]thousand [Cadd9]miles
Em Cadd9 D Cadd9 D G x2 (Intro riff)
If I could just see you, tonight
Verse 2:
It's always times like these
When I think of you
And I wonder
If you ever
Think of me
'Cause everything's so wrong
And I don't belong
Living in your
Precious memories
Pre-chorus:
[Cadd9] [G] [D] And I need you
[Cadd9] [G] [D] And I miss you
[Cadd9] [G] [D] And now I [Cadd9]wooo-n[D]der....
Chorus:
If [Cadd9]I could [D]fall [G]into the [Cadd9]sky
Do you think [D]time would [G]pass me [Cadd9]by
'Cause you know [D]I'd walk a [G]thousand [Cadd9]miles
Em Cadd9 D (Intro riff)
If I could just see you, tonight
Bridge (unknown chords):
And I, I don't want to let you know
I, I drown in your memory
I, I don't want to let this go
I, I don't....
Verse 1 (again):
Making my way downtown
Walking fast
Faces passed
And I'm home bound
Staring blankly ahead
Just making my way
Making my way
Through the crowd
Pre-chorus:
[Cadd9] [D] [G] And I still need you
[Cadd9] [D] [G] And I still miss you
[Cadd9] [D] [G] And now I [Cadd9]wooo-n[D]der....
Chorus:
If [Cadd9]I could [D]fall [G]into the [Cadd9]sky
Do you think [D]time would [G]pass me [Cadd9]by
'Cause you know [D]I'd walk a [G]thousand [Cadd9]miles
If I could [Em]just[Cadd9] see y[D]ou
Repeat Chorus! + Intro riff to end
SL

Important: The song above is NOT stored on the Chordie server. The original song is hosted at www.guitaretab.com. Chordie works as a search engine and provides on-the-fly formatting. Chordie does not index songs against artists'/composers' will. To remove this song please click here.

Text color:
Chord color:
Chord grids: 
Font size:    
Page size: 

Cadd9 D Em G
Rate #5 of 12 versions

Login - add to songbook

SHARE PAGE  




You need to log in to post comments