Guitar Tabs, Chords and Lyrics
Major upgrade!! After one year development the new version of Chordie is now online! Please give feedback.


One More Day  VAST

Vast ? One More Day
Before you slam me for this tab, it's actually the same notes. I just find it
easier to play it this way. This is the picking pattern I use and I know it's not
exact but it's timed perfect. Just try it and rate it.
!!!!CAPO 5th fret!!!!!
Verse pattern
[Em] [C] [Am] [C]  
 
 e|----------------------------------------------------------------------|
 B|----------0--------1-------1--------1-------1--------1-------1--------|
 G|--0----------0--------0----------0-----2-------2--------0----------0--|
 D|-----2----------2--------2----2----------2--------2--------2----2-----|
 A|--------2----------3----------------0----------------3----------------|
 E|--0-------------------------------------------------------------------|

Chorus pattern
[G] [Em] [C] [Am]  
 
 e|----------------------------------------------------------------------|
 B|----------0-----------------0--------1-------1--------1-------1-------|
 G|--0----------0-----0-----------0--------0----------0-----2-------2----|
 D|-----0----------0-----2-----------2--------2----2----------2-------2--|
 A|--------2-----------------2----------3----------------0---------------|
 E|--3----------------0--------------------------------------------------|

[Em] Have you [C]heard [Am] Have you [C]tried to under[Em]stand It's al[C]right
[Am] It gets [C]easier with [Em]time how are [C]you? [Am] Are you [C]ever coming [Em]back
I have [C]changed [Am] and I've [C]realized I was
[G]Wrong I was [Em]wrong Now I'll [C]never see your [Am]face
Any[G]more Oh my [Em]love I'd give [C]anything for [Am]one more day
with [Em]you[C] [Am] [C]
[Em] I'm getting [C]through [Am] wish you [C]felt the way I [Em]do
I have [C]changed [Am] and I've [C]realized I was
[G]Wrong I was [Em]wrong Now I'll [C]never see your [Am]face
Any[G]more Oh my [Em]love I'd give [C]anything for [Am]one more day
with [Em]you[C] [Am] [C] [Em] [C] [Am] [C]
I was [G]wrong I was [Em]wrong Now I'll [C]never see your [Am]face
Any[G]more Oh my [Em]love I'd do [C]anything for [Am]one more day with [G]you[Em]
I'd do [C]anything for [Am]one more day [G] [Em]
I'd give [C]anything for [Am]one more day with you

Important: The song above is NOT stored on the Chordie server. The original song is hosted at www.guitaretab.com. Chordie works as a search engine and provides on-the-fly formatting. Chordie does not index songs against artists'/composers' will. To remove this song please click here.

Text color:
Chord color:
Chord grids: 
Font size:    
Page size: 

Am C Em G
Rate #3 of 6 versions

Jango Player

Login - add to songbook

SHARE PAGE  



You need to log in to post comments