Guitar Tabs, Chords and Lyrics
Major upgrade!! After one year development the new version of Chordie is now online! Please give feedback.


Take Me Back  The Vines

 
 -----------------------------------------------------------------------

Take Me Back ? The Vines
 
 -----------------------------------------------------------------------

Tabbed by: Guitar_Maestro
Email: -
Tuning: Standard
If you find any errors, please comment. No offense taken.
Intro Riff ? Play this during intro and choruses
 
 e|------0--0---0---0---0---0--------------------------|
 B|--0h2--0--0h2?-0--0h2--0----------------------------|
 G|-----------------------------1--1--1--1-------------|
 D|-----------------------------2--2--2--2-------------|
 A|-----------------------------2--2--2--2-------------|
 E|----------------------------------------------------|
 e|----------------------------------------------------|
 B|----------------------------------------------------|
 G|-------2--2---2--2----2---2--1--1--1--1-------------|
 D|---2h4--2?-2h4--2--2h4--2----2--2--2--2-------------|
 A|-----------------------------2--2--2--2-------------|
 E|----------------------------------------------------|

Intro
[A] [E] [F#m] [E]  
Verse
There?s no point in doing what I?ve done
[A] [F#m] 
Lives are goddamned ruined like the runts
[A] [F#m] 
Chorus
Take me back to the weather
[A]  
Bend the tracks, wish forever
[E] [F#m]  
Take me back for I go down there no more
[E] [A] [E] [F#m] [E] 
Verse
Chew us up and spit us out again
[A] [F#m]  
Wavin' bye and getting high on trends
[A] [F#m]  
Repeat Chorus
Last time on 2nd Chorus
 
 e|------0--0---0---0---0---0--------------------------|
 B|--0h2--0--0h2?-0--0h2--0----------------------------|
 G|-----------------------------1--1--1--1-------------|
 D|-----------------------------2--2--2--2-------------|
 A|-----------------------------2--2--2--2-------------|
 E|----------------------------------------------------|
 e|----------------------------------------------------|
 B|----------------------------------------------------|
 G|-------2--2---2--2----2---2-----2---2---------------|
 D|---2h4--2?-2h4--2--2h4--2---2h4---2-----------------|
 A|----------------------------------------------------|
 E|----------------------------------------------------|

Interlude Riff 2x
[E]  
 
 e|----------------------------------------------------|
 B|------0---------0----------0-----------0------------|
 G|--0h1---1---0h1---1----0h1---1-----0h1---1----------|
 D|----------2---------2-----------2----------2--------|
 A|----------------------------------------------------|
 E|----------------------------------------------------|

[D] [A]  
 
 e|------2--------2-----------0---------0--------------|
 B|--2h3---3---2h3---3----0h2---2---0h2---2------------|
 G|----------2---------2----------2---------2----------|
 D|----------------------------------------------------|
 A|----------------------------------------------------|
 E|----------------------------------------------------|

Omit the A part of the interlude riff on the last time.
Instead play B#m (2-4-4 on A string, D, string, G string). (Power chord of B#m)
Solo
 
 e|----------------------------------------------------|
 B|----------------------------------------------------|
 G|--6-6--4--------------------------------------------|
 D|----------7--6--4?4/7?6--------2--------------------|
 A|----------------------------------------------------|
 E|----------------------------------------------------|
 e|----------------------------------------------------|
 B|----------------------------------------------------|
 G|--6-6--4--------------------------------------------|
 D|----------7--6--4?4/7?6?6/9?-7--6--6-6?6/9--7--6----|
 A|----------------------------------------------------|
 E|----------------------------------------------------|

Repeat Verse, ending on A and you?re done!
| + har
| / slide up
| \ slide down
| h hammer-on
| p pull-off
| ~ vibrato monic
| x Mute note
===============================================================================

Important: The song above is NOT stored on the Chordie server. The original song is hosted at www.guitaretab.com. Chordie works as a search engine and provides on-the-fly formatting. Chordie does not index songs against artists'/composers' will. To remove this song please click here.

Text color:
Chord color:
Chord grids: 
Font size:    
Page size: 

A D E F#m
Rate #2 of 4 versions

Jango Player

Login - add to songbook

SHARE PAGE  



You need to log in to post comments