Guitar Tabs, Chords and Lyrics
Major upgrade!! After one year development the new version of Chordie is now online! Please give feedback.


1969  The Vines

Intro/Break:
[D5] [E5] [G5]  
 
 e|---------------------------------------------------------------|
 B|---------------------------------------------------------------|
 G|--7-s-9---9---12-12-12-------7-s-9---7-s-9----7s9-7s9-7s9-7s9--|
 D|--7-s-9---9---12-12-12--(x3)-7-s-9---7-s-9----7s9-7s9-7s9-7s9--|
 A|--5-s-7---7---10-10-10-------5-s-7---5-s-7----5s7-5s7-5s7-5s7--|
 E|--------0--------------------------0-------0-------------------|

It's...
Verse 1:
It's ni[A]neteen sixty nine.....[G]
I [A]just wanna have no [C]place....[G].
..[A]living through the sound of ...[G]
I'm [A]gonna get stoned, look [C]round at my[G] soul.
Play Intro riff
Verse 2 (with arppegiated notes):
I'm hearing [A]voices in the trees, I'm seeing.[C]...
I just w[G]anna die before I lose my.[Em]....
I feel like [A]crying in my sleep because i dont [C]know..
I just w[G]anna live to see another [Em]day. HeyHeyHey
Chorus (x2):
[A] [C]  
 
 e|-0-0-----0-----0-----0-----0------0-0-----0-----0-----0-----0------|
 B|-2---2-----2-----2-----2-----2----1---1-----1-----1-----1-----1----|
 G|-2-----2-----2-----2-----2-----2--0-----0-----0-----0-----0-----0--|
 D|-2--------------------------------2--------------------------------|
 A|-0--------------------------------3--------------------------------|
 E|-------------------------------------------------------------------|
 He-e-ey hey-e-ey---------------------------------------| He-e-ey hey hey

[G] [Em]  
 
 e|-3-3-----3-----3-----3-----3------0-0-----0-----0-----0-----0------|
 B|-0---0-----0-----0-----0-----0----0---0-----0-----0-----0-----0----|
 G|-0-----0-----0-----0-----0-----0--0-----0-----0-----0-----0-----0--|
 D|-0--------------------------------2--------------------------------|
 A|-2--------------------------------2--------------------------------|
 E|-3--------------------------------0--------------------------------|

He-e-ey hey hey He-e-ey hey hey
Verse 3:
A (no chord) G
When I get my Bu-ick six
[A]Ill see my life drop in[C] that wh[G]irlpool....
[A]If I get to see you [G]again....
[A]You're the only [C]one I [G]know-oooooowwhh.
Play Intro riff (x2 second time getting faster.)
Solo (over fast intro riff):
 
 e|------------------------------------------------------|
 B|--9~~ 5~~ 3~~ ----------------------------------------|
 G|---------------4--2--4b5r4--2-------------------------|
 D|-------------------------------5--2--0h2--5-5b6r5--0--| (x2)
 A|------------------------------------------------------|
 E|------------------------------------------------------|

Then the guitar goes mad and I can't really tab it.
Breakdown:
Just bass guitar....
Then after the groans, a loud E chord.
Then
[D5] [E] [D]  
 
 e|------------------------------------------------------|
 B|-------------------9--9----9--9----9--9----7--7-------|
 G|-/7-7-7-7-7-7------9----9--9----9--9----9--7----7-----|
 D|-/7-7-7-7-7-7-(x4)-9-------9-------9-------7----------|
 A|-/5-5-5-5-5-5------7-------7-------7-------5----------|
 E|------------------------------------------------------|(over prev. riff)

Yeah....
E D(with riff)
Here I go, there I stand
E D(with riff)
I'm a seed, of a man
(no chord)
Dare I go, Dare I stare,
D(with riff)
I'm a seed, of a man
E D(with riff)
Final ending (play each chord twice sometimes with hammer-ons in
brackets):
[E] [G] [A] [F]  
 
 e|---------------------------------------------------------------------|
 B|-9---9(h10p9)--12----12(h13p12)--14----14(h15p14)--10----10(h11p10)--|
 G|-9-9----9------12-12----12-------14-14----14-------10-10----10-------|
 D|-9-------------12----------------14----------------10----------------|
 A|-7-------------10----------------12----------------8-----------------|
 E|---------------------------------------------------------------------|

End on E.

Important: The song above is NOT stored on the Chordie server. The original song is hosted at www.guitaretab.com. Chordie works as a search engine and provides on-the-fly formatting. Chordie does not index songs against artists'/composers' will. To remove this song please click here.

Text color:
Chord color:
Chord grids: 
Font size:    
Page size: 

A C D D5 E E5 Em F G G5
Rate #0 of 5 versions

Jango Player

Login - add to songbook

SHARE PAGE  




You need to log in to post comments