Guitar Tabs, Chords and Lyrics
Major upgrade!! After one year development the new version of Chordie is now online! Please give feedback.


Futuretarded   The Vines

 
 ---------------------------------|
 ---------------------------------|
 -9-9-9-9-9-9-9-9-----------------|
 -9-9-9-9-9-9-9-9-5-5-5-5-5-5-5-5-| x 6
 -7-7-7-7-7-7-7-7-5-5-5-5-5-5-5-5-|
 -----------------3-3-3-3-3-3-3-3-|

 


 


 Chorus


 

 
 -----------------------------------------|
 -----------------------------------------|
 -----------------------------------------|
 -10-10-10-10-10-10-10-10-7-7-7-7-7-7-7-7-|
 -10-10-10-10-10-10-10-10-7-7-7-7-7-7-7-7-|
 -8--8--8--8--8--8--8--8--5-5-5-5-5-5-5-5-|
 ---------------------------------|
 ---------------------------------|
 -9-9-9-9-9-9-9-9-----------------|
 -9-9-9-9-9-9-9-9-5-5-5-5-5-5-5-5-| x2 (Play this first time,
 -7-7-7-7-7-7-7-7-5-5-5-5-5-5-5-5-| second time just go straight into verse)
 -----------------3-3-3-3-3-3-3-3-|

 


 


 Bridge


 

 
 -------------------------------|
 -------------------------------|
 -7-9--9--7-9-------------------|
 -7-9--9--7-9-3-3-3-3-3-3-3-3-3-|
 -5-7--7--5-7-3-3-3-3-3-3-3-3-3-|
 -------------1-1-1-1-1-1-1-1-1-|
 -------------------------------|
 -------------------------------|
 -7-9--9--7-9-------------------|
 -7-9--9--7-9-5-5-5-5-5-5-5-5-5-|
 -5-7--7--5-7-5-5-5-5-5-5-5-5-5-|
 -------------3-3-3-3-3-3-3-3-3-|

 


 


 x4


 


 [End]  

 
 -------------|
 -------------|
 -7-9--9--7-9-|
 -7-9--9--7-9-|
 -5-7--7--5-7-|
 -------------|


Important: The song above is NOT stored on the Chordie server. The original song is hosted at www.guitaretab.com. Chordie works as a search engine and provides on-the-fly formatting. Chordie does not index songs against artists'/composers' will. To remove this song please click here.

This song is displayed as text-only. Transposing and tuning is only available for chordpro-songs.
Rate #3 of 3 versions

Jango Player

Login - add to songbook

SHARE PAGE  




You need to log in to post comments