Guitar Tabs, Chords and Lyrics
Server problems seems to be fixed. Chordie has been experiencing problems with songs disappearing. These issues now seems to be fixed, but still verifying the fix. If you find anything strange, please email admin@chordie.com.


I'm Free  Violent Femmes

 
 ----------------------------------------------------------------------------

I'M FREE - THE VIOLENT FEMMES
 
 ----------------------------------------------------------------------------

Tabbed by:D'Argirolle
Email:dargirolle@caramail.com
Tuning: EADGBE
[D] [G] [A] [F#] [Bm] [E]  
 
 e|--2--3--0--2---2---0-----------------------------------------------------|
 B|--3--3--2--2---3---0-----------------------------------------------------|
 G|--2--0--2--3---4---1-----------------------------------------------------|
 D|--0--0--2--4---4---2-----------------------------------------------------|
 A|--x--2--0--4---2---2-----------------------------------------------------|
 E|--x--3--x--2---x---0-----------------------------------------------------|

[D]I'm[G] fre[D]e and I'm h[G]app[A]y
I am [G]free from your [D]hatred
I've [G]parted from the [F#]part
that I [G]participa[A]ted in so
I'm [D]fr[G]ee[D] it was e[G]asy[A]
I know [G]nothing of your [D]hatred
I've [G]known and shone the [F#]light
G A D (you can play D-C#-C on A string)
and the darkness abated so I'm free
[Bm]run skip jump play my little boy is happy
look he's [A]smiling because he knows no [Bm]fear
hear my mommy's calling me and I'm [E]running through the fields because
I'm [A]free and I'm happy
And I'm [D]fr[G]ee[D] and I'm [G]happ[A]y
(Same as the first verse)
I am free from your hatred
I've parted from the part
that I participated in so I'm free
Every day in every way
I'm getting better and better and better and better and better and better
because there's no fear here
why I can't tell you now cause I'm runnin through the woods
and I just jumped a little bit higher
cause I'm free and that's the way he created me to be
I have turned from your hatred I turned on the light
and there was nothing there that waited to get me
[D]this ain't a [G]song about[D] that this is a[G] song about [D]this
(ad lib)

Important: The song above is NOT stored on the Chordie server. The original song is hosted at www.guitaretab.com. Chordie works as a search engine and provides on-the-fly formatting. Chordie does not index songs against artists'/composers' will. To remove this song please click here.

Text color:
Chord color:
Chord grids: 
Font size:    
Page size: 

A Bm D E F# G
Rate #2 of 2 versions

Jango Player

Login - add to songbook

SHARE PAGE  




You need to log in to post comments