Guitar Tabs, Chords and Lyrics
Server problems seems to be fixed. Chordie has been experiencing problems with songs disappearing. These issues now seems to be fixed, but still verifying the fix. If you find anything strange, please email admin@chordie.com.


Lousy Reputation  We Are Scientists

Intro 0:00-0:38
(guitars 1 and 2)
 
 |-----------------------16-16-16-16-16-16-----|
 |------------------------x--x--x--x--x--x-----|
 |-13-13-13-13-13-13-13-13-13-13-13-13-13------| REPEAT MANY TIMES!!!!
 |--x--x--x--x--x--x--x---x--x--x--x--x--x-----|
 |-11-11-11-11-11-11-11-11-11-11-11-11-11------|
 |---------------------------------------------|

____________ ____________
Bass | 1st ending | 2nd ending
 
 |-------------------------------||----------||------------|
 |-------------------------------||----------||------------|
 |-?---------------------------?-||----------||------------|
 |-?---------------------------?-||----------||------------|
 |--242-1------242-1------22----||---22-1---||--222-1------|
 |-4------2-4-4------2--0----0--||-0--------||-0-----------|

Verse 0:38-0:50
"A bigger man might not feel..."
(guitars 1 and 2)
[C#5] ____ _____ _[E5]____ ______ _____ [C#5]_____ _____ ___[D#5]___ _____ _____[E5]
| | | | | | | | | | | | | | | | | | | | | | | | | | | | | | | |
| | | | | | | |
[/] [//] [/] [/] [/] [/] [/] [/] [//] [/] [/] [/] [/] [/] [/] [//] [/] [/] [/] [/] [/] [/] [//] [/] [/] [/] [/] [/] [/] [//] [/] [/] [/] [/] [/] 
 
 |-------------|-------------|-----------|-----------|---------------|
 |-------------|-------------|-----------|-----------|---------------|
 |-?-6-------?-|-?-9-------?-|-6---------|-8---------|--9------------|
 |-?-6-------?-|-?-9-------?-|-6---------|-8---------|-?9------------|
 |---4---------|---7---------|-4---------|-6---------|--7------------|
 |-------------|-------------|-----------|-----------|---------------|

Chorus 0:50-1:03
Guitar 1
 
 |--11-11-11-11-12-12-12-12-11-11-11-11--9--9--9--9-------|
 |--12-12-12-12-12-12-12-12-12-12-12-12-11-11-11-11-------|
 |-?--------------------------------------------------?---|
 |-?--------------------------------------------------?---|
 |--------------------------------------------------------|
 |--------------------------------------------------------|

Guitar 2
[B] [E5] [C#5] [F#] 
 
 |----------------------------------------|
 |----------------------------------------|
 |-?----------9-9-9-9-----------------?---|
 |-?-9-9-9-9-9-9-9-9-6-6-6-6-4-4-4-4-?----|
 |---9-9-9-9-7-7-7-7-6-6-6-6-4-4-4-4------|
 |---7-7-7-7---------4-4-4-4-2-2-2-2------|

Verse 2
(guitars 1 and 2)
|
 
 |-16-16-16-16-16-16-16-16-16-16-16-11-11-11-11-11-11-11-11-11-11-----------|
 |--x--x--x--x--x--x--x---x--x--x--x--x--x--x--x---x--x--x--x--x--x---------|
 |-13-13-13-13-13-13-13-13-13-13-13--8--8--8--8--8--8--8--8--8--8---| x 1-|
 |--x--x--x--x--x--x--x---x--x--x--x----------------------------------------|
 |-11-11-11-11-11-11-11-11-11-11-11-----------------------------------------|
 |--------------------------------------------------------------------------|
 |-11--------|
 |----9-12-9-|
 |-----------| x 7
 |-----------|
 |-----------|
 |-----------|

Then they do the chorus, after that the bass comes in and plays,
then they do the chorus twice, and end on E5.
Have fun!
d?_?b

Important: The song above is NOT stored on the Chordie server. The original song is hosted at www.guitaretab.com. Chordie works as a search engine and provides on-the-fly formatting. Chordie does not index songs against artists'/composers' will. To remove this song please click here.

Text color:
Chord color:
Chord grids: 
Font size:    
Page size: 

B C#5 D#5 E5 F#
Rate #2 of 3 versions

Login - add to songbook

SHARE PAGE  




You need to log in to post comments