Guitar Tabs, Chords and Lyrics
Server problems seems to be fixed. Chordie has been experiencing problems with songs disappearing. These issues now seems to be fixed, but still verifying the fix. If you find anything strange, please email admin@chordie.com.


Can't Lose  We Are Scientists

This is my first tab so just bear with me, but i?m 99% sure its 100% right!
X= Fret-Hand Mute
/= Slide Up
\= Slide Down
Verse 1
?The party's alright, I might wanna stop drinking
What were we talking about?
My body won't tell my mind what I've been thinking
Before it's outta my mouth?
Ooow
Bridge
 
 e|-777777775555555544444444112211221----------------------------------------|
 B|--------------------------------------------------------------------------|
 G|--------------------------------------------------------------------------|
 D|--------------------------------------------------------------------------|
 A|--------------------------------------------------------------------------|
 E|--------------------------------------------------------------------------|

Verse 2
?The minute I get upset, that's it, it's over
I'm already outta the room
Why can't I just forget that?
I know what's gonna hurt
There's not much else I can do
Ooow?
Chorus
Dx8
?I'm breaking my own rules
Ex8
Becoming someone else
Dx8 Ex8
Well everybody says I oughtta get over myself
Dx8
I'm thinking I can't move
Ex4 F#mx4
If there isn't somewhere else
To go?
Bridge
[F#m] [F#m] [F#m] [F#m] [F#m] [F#m] [F#m]  
 
 e|-2---XX-2---XX-2---XX-2---XX-2---XX-2--?9---9---9---9---9-|
 B|-2---XX-2---XX-2---XX-2---XX-2---XX-2---9---9---9---9---9-|
 G|-2---XX-2---XX-2---XX-2---XX-2---XX-2---9---9---9---9---9-|
 D|-3---XX-3---XX-3---XX-3---XX-3---XX-3--11--11--11--11--11-|
 A|-3---XX-3---XX-3---XX-3---XX-3---XX-3--11--11--11--11--11-|
 E|-2---XX-2---XX-2---XX-2---XX-2---XX-2---9---9---9---9---9-|

Play the XX by keeping your fingers in the F#m position but just touching the strings
your fret hand, don?t press them down
Verse3
 
 e|-9999 10101010-7777-9999-5555-4444-2222-10101010---------------|
 B|---------------------------------------------------------------|
 G|---------------------------------------------------------------|
 D|---------------------------------------------------------------|
 A|---------------------------------------------------------------|
 E|---------------------------------------------------------------|

?I've probably made mistakes that I've forgotten
It's all ambiguous now?
 
 e|-9999 10101010-7777-9999-5555-4444-2222-12121------------------|
 B|---------------------------------------------------------------|
 G|---------------------------------------------------------------|
 D|---------------------------------------------------------------|
 A|---------------------------------------------------------------|
 E|---------------------------------------------------------------|

?I'd be willing to take the shape of what you wanted
I could just figure it out
Ooow?
Chorus
Dx8
?I'm breaking my own rules
Ex8
Becoming someone else
Dx8 Ex8
Well everybody says I oughtta get over myself
Dx8
I'm thinking I can't move
Ex4 F#mx4
If there isn't somewhere else
To go?
e|-7777777755555555444444441111111199999999101010101010101313131313131313-
 
 B|------------------------------------------------------------------------|
 G|------------------------------------------------------------------------|
 D|------------------------------------------------------------------------|
 A|------------------------------------------------------------------------|
 E|------------------------------------------------------------------------|

Interlude
 
 e|------------------------------------------------------------------------|
 B|------------------------------------------------------------------------|
 G|------------------------------------------------------------------------|X4
 D|-7777\6666\4444\2222\1111111/2------------------------------------------|
 A|------------------------------55555555----------------------------------|
 E|------------------------------------------------------------------------|

?Ooooohhhh? On the 4th time only play one 5
Chorus
Dx8
?I'm breaking my own rules
Ex8
Becoming someone else
Dx8 Ex8
Well everybody says I oughtta get over myself
Dx8
I'm thinking I can't move
Ex8 F#mx8
If there isn't somewhere else
To go?
Bridge
[F#m] [F#m] [F#m] [F#m] [F#m] [F#m] [F#m]  
 
 e|-2---XX-2---XX-2---XX-2---XX-2---XX-2--?9---9---9---9---9-|
 B|-2---XX-2---XX-2---XX-2---XX-2---XX-2---9---9---9---9---9-|
 G|-2---XX-2---XX-2---XX-2---XX-2---XX-2---9---9---9---9---9-|
 D|-3---XX-3---XX-3---XX-3---XX-3---XX-3--11--11--11--11--11-|
 A|-3---XX-3---XX-3---XX-3---XX-3---XX-3--11--11--11--11--11-|
 E|-2---XX-2---XX-2---XX-2---XX-2---XX-2---9---9---9---9---9-|

Chorus
Dx8
?It's changing my issues
Ex8
As far as I can tell
Dx8 Ex8
Well everybody says I oughtta get over myself
Dx8
I'm thinking I can't move
Ex8 F#mx8
If there isn't somewhere else
To go?
e|-7777777755555555444444441111111199999999101010101010101313131313131313-
 
 B|------------------------------------------------------------------------|
 G|------------------------------------------------------------------------|
 D|------------------------------------------------------------------------|
 A|------------------------------------------------------------------------|
 E|------------------------------------------------------------------------|

It sounds great played along with the CD.
!!!Thanks!!!

Important: The song above is NOT stored on the Chordie server. The original song is hosted at www.guitaretab.com. Chordie works as a search engine and provides on-the-fly formatting. Chordie does not index songs against artists'/composers' will. To remove this song please click here.

Text color:
Chord color:
Chord grids: 
Font size:    
Page size: 

F#m
Rate #1 of 1 versions

Jango Player

Login - add to songbook

SHARE PAGE  




You need to log in to post comments