Guitar Tabs, Chords and Lyrics
Major upgrade!! After one year development the new version of Chordie is now online! Please give feedback.


Night Windows  The Weakerthans

 
 -------------------------------------------------------------------------------

NIGHT WINDOWS - The Weakerthans
 
 -------------------------------------------------------------------------------

Tabbed by: Pat Malavi
pat.malavi@gmail.com
G 32003X
Em 02200X
C 03201X
D X5403X
Bm X2443X
Verse 1
[G]In the stick[Em]-count for the [C]song of knowing you're gone
[G]Glancing [Em]up at where you [C]lived when you lived here
[G]I see you [Em]suddenly a[C]live and nearly smiling
[G]Stop and [Em]hold my breath and [C]watch the way you used to be
Chorus
[D]The full moon makes[C] our faces shine[Em] like over-[G]ironed pol[C]yester
[D]Then disappears[C] behind the clouds
[Em]And leaves me [G]under empty rows[C] of night win[G]dows
Verse 2
[G]We could w[Em]alk to where these [C]streets get pulled together
[G]A blinking [Em]line with gravel [C]shoulders squared towards an end
[G]Where the [Em]radio re[C]sounds from doppling traffic
[G]Where the [Em]power lines steal [C]esses from the hourly news
Chorus
[D]De-pluralize[C] our casualties[Em] and drown the [G]generals out in [C]static
[D]We'd turn and watch[C] our city sprawl
[Em]And send us [G]signals in the glow[C] of night win[G]dows
Outro
[G]But you're [D]not[Bm] coming [C]home again
[G]And I [D]won't[Bm] ever [C]get to say
"Re[G]member how... I'm [D]sorry that... I [Bm]miss the way... Could [C]we..."
End on G
Intro bass line and guitar riff after chorus
 
 e|--------------------------------------------------------------------------|
 B|--------------------------------------------------------------------------|
 G|--------------------------------------------0---0---0---0---0---0---0---0-|
 D|-----12-10--9----------------9--------------------------------------------|
 A|--10----------12-10--9---7-------9---10---3---3---3---2---0---0---3---3---|
 E|--------------------------------------------------------------------------|

Verse riff
 
 e|--------------------------------------------------------------------------|
 B|----10--10--10--10---8---8---8---7---5---5---5---3---2---2---1---1--------|
 G|--------------------------------------------------------------------------|
 D|--------------------------------------------------------------------------|
 A|--10--10--10---9---7---7---7---5---3---3---3---2---0---0---3---3----------|
 E|--------------------------------------------------------------------------|

Outro riff
 
 e|--------------------------------------------------------------------------|
 B|----12--12--12--12--10--10--10--10---7---7---7---7---5---5---5---5--------|
 G|--------------------------------------------------------------------------|
 D|--------------------------------------------------------------------------|
 A|--10--10--10--10---9---9---9---9---7---7---7---7---3---3---3---3----------|
 E|--------------------------------------------------------------------------|


Important: The song above is NOT stored on the Chordie server. The original song is hosted at www.guitaretab.com. Chordie works as a search engine and provides on-the-fly formatting. Chordie does not index songs against artists'/composers' will. To remove this song please click here.

Text color:
Chord color:
Chord grids: 
Font size:    
Page size: 

Bm C D Em G
Rate #1 of 2 versions

Jango Player

Login - add to songbook

SHARE PAGE  




You need to log in to post comments