Guitar Tabs, Chords and Lyrics
Server problems seems to be fixed. Chordie has been experiencing problems with songs disappearing. These issues now seems to be fixed, but still verifying the fix. If you find anything strange, please email admin@chordie.com.


Time's Arrow  The Weakerthans

Time's Arrow by the Weakerthans - Reconstruction Site
Tabbed by Michael Dunn
BTW this is the first tab that I've ever submitted so you can
shoot comments to mikedunn@shaw.ca
INTRO
[F] [C]  
 
 E--------8--------------------------------------------------------|
 B-----10---10-10/1110-8-------------10-(8)---------10p8-----------|
 G------------------------10--9--------------9------------10p9-----|
 D------------------------------10-------------10------------------|
 A---8----------------------------10-(10)--------10-(10)--(10)-----|
 E----------------------------8--------------8---------------------|

This is the only tricky part, play the
C barred at 8 and move your pinky to
hit the high notes.
[D] [A#/Bb] [F] 
 
 E-----------------------------------------------------------------|
 B----------6--6-----------6-6--------------1-----5/65-3-5-(6)-----|
 G-------7--7--7-----------7-7--------------2----------------------|
 D-----7----------------8----------------3-------------------------|
 A---5----------------8----------------3---------------------------|
 E------------------6----------------1-----------------------------|

Verse
[F] [Am] 
So you watch the sunrise sinking, and she's talking in her sleep.
[Dm] [C] [A#/Bb]  
A dream of how alone she was tommorrow when you keep
[F] [Am]  
all those promises to someone in a mirror you will find
[Dm] [C] [A#/Bb] 
at your parents' house in nineteen eighty nine.
Chorus
[A#/Bb] [C] [Am] [A#/Bb] 
 
 t-e-r-r-o-r i-z-e-d by the ruling party: calenders and commas.

[A#/Bb] [C] [Am] [A#/B] 
 
 S-m-a-l-l r-e-q-u-e-s-t, could we please turn around?

So you whisper your arrival walking backwards to the door.
Wonder briefly what it is you're hesitating for.
All the streets lie down, deserted in the darkest part of night,
to lead you through the evening to the light.
Pulled along in thender grip of watched and ellipses.
Small request. Could we please turn around?
Outro
Play the intro twice but lay a C at the end of the second run.
Then
F,A#,Dm,/Dm,/C

Important: The song above is NOT stored on the Chordie server. The original song is hosted at www.guitaretab.com. Chordie works as a search engine and provides on-the-fly formatting. Chordie does not index songs against artists'/composers' will. To remove this song please click here.

Text color:
Chord color:
Chord grids: 
Font size:    
Page size: 

A#/B Am C D Dm F
Rate #1 of 2 versions

Jango Player

Login - add to songbook

SHARE PAGE  



You need to log in to post comments