Guitar Tabs, Chords and Lyrics
Major upgrade!! After one year development the new version of Chordie is now online! Please give feedback.


Bananas and Blow  Ween

Chords: Em, D, C, G
Intro: Em, D
D, Em
Intro Steel Drums:
 
 E|------7-7----7------------------------7-7----7---------------|
 B|-8-10-----10---10-8-8h10-8-7-----8-10-----10---10-8-8h10-8-7-|
 G|-----------------------------9-7-----------------------------|
 D|-------------------------------------------------------------|
 A|-------------------------------------------------------------|
 E|-------------------------------------------------------------|
 E|------7-7----7--------------------------------------7--------|
 B|-8-10-----10---10-8-8h10-8-7---------7-7-8-10-10-10---10-8---|
 G|-----------------------------9-7-7-9-------------------------|
 D|-------------------------------------------------------------|
 A|-------------------------------------------------------------|
 E|-------------------------------------------------------------|
 E|--------------------7--------|
 B|-----7-7-8-10-10-10---10-8---|
 G|-7-9-------------------------|
 D|-----------------------------|
 A|-----------------------------|
 E|-----------------------------|

Verse:
[Em]Sancho brought a message from the fat[D] man
[Em]Sorry boy, to leave you high and [D]dry
[Em]But I went to see my mom in Ense[D]nada
[D]And I left a little something to help the time go [Em]by
[D]Just a little something to help to keep you high[G] [C] [G]
Chorus:
[G]Bananas and [C]Blow[D], Bananas and blow[Em]
[C]Stuck in my cabana, [D]living on bananas and [G]bl[C]ow[G]
Verse:
[Em]Now the rainy season reminds me of Ma[D]ria
[Em]The way she danced, the color of her [D]hair
[Em]Now I'm locked inside a stall in the can[D]tina
[D]Eating the bananas and cocaine off the mir[Em]ror
[D]Looking for a ticket to take me away from [G]he[C]re[G]
Chorus(x4):
[G]Bananas and [C]Blow[D], Bananas and [Em]blow
[C]Stuck in my cabana, [D]living on bananas and [G]bl[C]ow[G]

Important: The song above is NOT stored on the Chordie server. The original song is hosted at www.guitaretab.com. Chordie works as a search engine and provides on-the-fly formatting. Chordie does not index songs against artists'/composers' will. To remove this song please click here.

Text color:
Chord color:
Chord grids: 
Font size:    
Page size: 

C D Em G
Rate #1 of 2 versions

Login - add to songbook

SHARE PAGE  




You need to log in to post comments