Guitar Tabs, Chords and Lyrics
Major upgrade!! After one year development the new version of Chordie is now online! Please give feedback.


Birthday Boy  Ween

VERSE:
[G] [Em] [C] [G]  
 
 e|--3----0---------- e|--0----3------------|
 b|--0----0---------- b|--1----0------------|
 g|--0----0---------- X 3 then g|--0----0---|
 d|--0----2--0--2-0-- d|--2----0------------|
 a|--2----2---------- a|--3----2------------|
 e|--3----0---------- e|-------3------------|

(hammer on/off d-string after Em)
Jesus Christ
Pain
Take one
Yeah! Pain
[G]Last time I [Em]saw you, I was [G]holding your [Em]hand
[G]And I couldn't[Em] wait for you to [C]leav[G]e
[G]I knew right[Em] then that it w[G]as over and d[Em]one
[G]And I couldn't [Em]believe that I was [C]fre[G]e
CHORUS:
 
 e|--3----1-----------0-----0--------3----0----0----3--|
 b|--3----0-----------1-----1--------0----0----1----0--|
 g|--0----0-----------0-----2--------0----0----0----0--|
 d|--0----0-----------2-----2--------0----2----2----0--|
 a|-------------------3--2--0--------2----2----3----2--|
 e|----------------------------------3----0---------3--|

Help me now, I'm going down
And I don't know if I'll be ok
I'll be around, I'll be in town
If you need a place to stay
When the wind blows and there's a chill in the air
I hope that someone is taking care of you
I'm alright, yeah, I'm really ok
Just so you know I'm always there for you
Help me now, I'm going down
And I don't know if I'll be ok
I'll be around, I'll be in town
If you need a place to stay
(This is Happy Birthday.....
Happy Birthday to you, happy Birthday to you,
Happy Birthday dear Karen, happy Birthday to you.....
You're no longer only just a teenager, you're a full-grown 20....)

Important: The song above is NOT stored on the Chordie server. The original song is hosted at www.guitaretab.com. Chordie works as a search engine and provides on-the-fly formatting. Chordie does not index songs against artists'/composers' will. To remove this song please click here.

Text color:
Chord color:
Chord grids: 
Font size:    
Page size: 

C Em G
Rate #1 of 2 versions

Jango Player

Login - add to songbook

SHARE PAGE  




You need to log in to post comments