Guitar Tabs, Chords and Lyrics
Server problems seems to be fixed. Chordie has been experiencing problems with songs disappearing. These issues now seems to be fixed, but still verifying the fix. If you find anything strange, please email admin@chordie.com.


Alcan Road  Ween

ALCAN ROAD - words and music by Ween
**from the album "Quebec"
I play all on barre chords (Gm,A,D), there are two guitars on this song,
one plays the chord the other the riff.
Alcan Road - by Ween
[Gm] [A] [Gm] [A] 
[A]  
 
 E||----3-----3s5s3------------------------------3-----3s5s3------------------------------3-----3s5s3-----------------------||
 B||----3------------5--3------------------------3------------5--3------------------------3------------5--3-----------------||
 G||----3------------------5--3------------------3------------------5--3------------------3------------------5--3-----------||
 D||----5------------------------3--5s7----------5------------------------3--5s7----------5------------------------3--5s7---||
 A||----5----------------------------------------5----------------------------------------5---------------------------------||
 E||----3----------------------------------------3----------------------------------------3---------------------------------||

[Gm] [A] [Gm] [A] 
[A]  
 
 E||----3-----3s5s3------------------------------3-----3s5s3------------------------------3-----3s5s3-----------------------||
 B||----3------------5--3------------------------3------------5--3------------------------3------------5--3-----------------||
 G||----3------------------5--3------------------3------------------5--3------------------3------------------5--3-----------||
 D||----5------------------------3--5s7----------5------------------------3--5s7----------5------------------------3--5s7---||
 A||----5----------------------------------------5----------------------------------------5---------------------------------||
 E||----3----------------------------------------3----------------------------------------3----------------------------------|

[D] [Gm] [A] [Gm] [D] [Gm] [A] [Gm] 
 
 E||----3----------3----------5----------3---------3----------3----------5----------3---------||
 B||----5----------3----------5----------3---------5----------3----------5----------3---------||
 G||----5----------3----------6----------3---------5----------3----------6----------3---------||
 D||----5----------5----------7----------5---------5----------5----------7----------5---------||
 A||----3----------5----------7----------5---------3----------5----------7----------5---------||
 E||----3----------3----------5----------3---------3----------3----------5----------3---------||

Then :
guitar 1 :
[Gm] [A] [Gm] [A] 
[A]  
 
 E||----3-----3s5s3------------------------------3-----3s5s3------------------------------3-----3s5s3-----------------------||
 B||----3------------5--3------------------------3------------5--3------------------------3------------5--3-----------------||
 G||----3------------------5--3------------------3------------------5--3------------------3------------------5--3-----------||
 D||----5------------------------3--5s7----------5------------------------3--5s7----------5------------------------3--5s7---||
 A||----5----------------------------------------5----------------------------------------5---------------------------------||
 E||----3----------------------------------------3----------------------------------------3---------------------------------||

guitar 2 :
 
 E||------------------------------------------------------------------------------------------------------------------------||
 B||------------------------------------------------------------------------------------------------------------------------||
 G||----7~----------------------------9~---------12~----------------------------2~--------7~----------------------------9~--||
 D||------------------------------------------------------------------------------------------------------------------------||
 A||------------------------------------------------------------------------------------------------------------------------||
 E||------------------------------------------------------------------------------------------------------------------------||

guitar 1 :
[Gm] [A] [Gm] [A] 
[Gm] [A] [Gm]  
 
 E||----3-----3s5s3------------------------------3-----3s5s3------------------------------3----------3----------5---------3-||
 B||----3------------5--3------------------------3------------5--3------------------------5----------3----------5---------3-||
 G||----3------------------5--3------------------3------------------5--3------------------5----------3----------6---------3-||
 D||----5------------------------3--5s7----------5------------------------3--5s7----------5----------5----------7---------5-||
 A||----5----------------------------------------5----------------------------------------3----------5----------7---------5-||
 E||----3----------------------------------------3----------------------------------------3----------3----------5---------3-||

guitar 2 :
 
 E||------------------------------------------------------------------------------------------------------------------------||
 B||------------------------------------------------------------------------------------------------------------------------||
 G||----7~----------------------------9~---------7~----------------------------9~-------------------------------------------||
 D||-------------------------------------------------------------------------------------------------5~---------7~--------5~||
 A||--------------------------------------------------------------------------------------3~--------------------------------||
 E||------------------------------------------------------------------------------------------------------------------------||

guitar 1 :
[D] [Gm] [A] [Gm]  
 
 E||--3----------------3----------------5----------------3-----------------||
 B||--5----------------3----------------5----------------3-----------------||
 G||--5----------------3----------------6----------------3-----------------||
 D||--5----------------5----------------7----------------5-----------------||
 A||--3----------------5----------------7----------------5-----------------||
 E||--3----------------3----------------5----------------3-----------------||

guitar 2 :
 
 E||-----------------------------------------------------------------------||
 B||-----------------------------------------------------------------------||
 G||--5~-----5s12~-----3~-----------------------7s9~-----------------------||
 D||-----------------------------------------------------------------------||
 A||------------------------------------5s7~-------------------------------||
 E||-----------------------------------------------------------------------||

Then you go back to the first part
***official lyrics***
Open the gate to the red land
Alcan road, by the turquoise lake
Starry skies, a mushroom cloud
Folding waves-in a foamy tide
Washing in beds-of opal shells
white gulls cry-for you and I
butterflies-float away
drift over pools-of salt and clay
mountain man--frosted child
eagles cry-puppets of god
strung like time-molded in form
trees bend back-and trails distort
it leads to the land-of Alcan Road
the turquoise lake-and starry skies
mushroom clouds--folding waves
foamy tides-of salt and brine
Tabbed by GABOU !!! (gabou@gabouprod.com)

Important: The song above is NOT stored on the Chordie server. The original song is hosted at www.guitaretab.com. Chordie works as a search engine and provides on-the-fly formatting. Chordie does not index songs against artists'/composers' will. To remove this song please click here.

Text color:
Chord color:
Chord grids: 
Font size:    
Page size: 

A D Gm
Rate #1 of 3 versions

Jango Player

Login - add to songbook

SHARE PAGE  




You need to log in to post comments