Guitar Tabs, Chords and Lyrics
Major upgrade!! After one year development the new version of Chordie is now online! Please give feedback.


Tired of Sex  Weezer

Song Title: Tired of Sex
Artist: Weezer
Album: Pinkerton
Contributor: apocalypto
Tuning: E flat
Intro:
 
 E||-------------------------------------------------|E
 B||--12--------------------10----{13-12-------------|B
 G||-------11-12-11------------------------11-12-11--|G
 D||--------------------12---------------------------|D
 A||-------------------------------------------------|A
 E||-------------------------------------------------|E
 E|---------------------------------------------------------||E
 B|---10-9-10}----12-------------------10----12-13-12-10-8--||B
 G|--------------------11-12-11-----------------------------||G
 D|--12-----------------------------------12----------------||D
 A|---------------------------------------------------------||A
 E|---------------------------------------------------------||E

Random feedback
Main Riff:
 
 E||----------------------------------||E
 B||----------------------------------||B
 G||----------7--7--7--9--7--2--4--4--||G
 D||--5--5--7--7--7--9--7--2--4--4----||D
 A||--5--5--5--5--5--7--5--3--2--2----||A
 E||--3--3--5--5--5--7--5--3--2--2----||E

Chorus Riff:
 
 E||-----------------------------------------------------||E
 B||-----------------------------------------------------||B
 G||-----------------5--5--5--5--7--7--7--7--9--9--9--9--||G
 D||--5--5--5--5--5--5--5--5--7--7--7--7--9--9--9--9-----||D
 A||--5--5--5--5--3--3--3--3--5--5--5--5--7--7--7--7-----||A
 E||--3--3--3--3--3--3--3--3--5--5--5--5--7--7--7--7-----||E x3

Riff C "why can't i be
 
 E||-------------------------------------------------|E
 B||-------------------------------------------------|B
 G||--10-10-10-10-10-10-10-10------------------------|G
 D||--10-10-10-10-10-10-10-10--10-10-10-10-10-10-10--|D
 A||---8---8---8---8---8---8---8--8--10-10-10-10-10--|A
 E||---8---8---8---8---8---8---8--8---8---8---8---8--|E

making love come true?
 
 E||-------------------------------------------------------||E
 B||-------------------------------------------------------||B
 G||-------------------------------------------------------||G
 D||--10-----------------------------------7---------------||D
 A||--10-10-10-10-10-10-10-10-10-10-10--7------------------||A
 E||---8--8--8--8--7--7--7--7--7--7--7--7--5---------------||E

Solo (Over Main Riff)
 
 E||------------------------------------------------------|E
 B||--12p10h12p10h12--12p10h12p10h12--15b17--15-12-15-12--|B
 G||------------------------------------------------------|G
 D||------------------------------------------------------|D
 A||------------------------------------------------------|A
 E||------------------------------------------------------|E
 E|-----------------------------------------------------------|E
 B|-----------------------------------------------------------|B
 G|--15-14-12-14-15-14-12----14-12-------14-12----12----------|G
 D|---------------------------------12--------14-12-------12--|D
 A|-----------------------------------------------------------|A
 E|-----------------------------------------------------------|E
 E|--15-15-15/17-17-17-17-17-19-19-19/20-20-20-20-20/21--|E
 B|------------------------------------------------------|B
 G|--12-12-12/14-14-14-14-14-16-16-16/17-17-17-17-17/19--|G
 D|------------------------------------------------------|D
 A|------------------------------------------------------|A
 E|------------------------------------------------------|E
 E|--x-x-x-x-x-x-x-x-x-x-x-x-x--|E
 B|-----------------------------|B
 G|-----------------------------|G
 D|-----------------------------|D
 A|-----------------------------|A
 E|-----------------------------|E
 E|--20/12-----------------------------||E
 B|-----------22b23-20h22p20h22b23-20--||B
 G|------------------------------------||G
 D|------------------------------------||D
 A|------------------------------------||A
 E|------------------------------------||E

Outro Riff:
 
 E||----------------||E
 B||--1--0-------0--||B
 G||--------2-------||G
 D||-----------2----||D
 A||----------------||A
 E||----------------||E

Lyrics:
I'm tired
So tired
I'm tired of having sex (so tired)
I'm spread
So thin
I don't know who I am (who I am
Monday night I'm making Jen
Tuesday night I'm making Lin
Wednesday night I'm making Catherine
(Riff C)
[E#]oh why can't I be making[C] love come [B/C]true?[A]
(Main Riff x2)
whoa
I'm beat
Beat red
Ashamed of what I said (what I said)
I'm sorry
Here I go
I know I'm a sinner but I can't say no (say no)
(Chorus Riff)
thursday night I'm making denise
friday night I'm making sharice
saturday night I'm making louise
(Riff C)
[E#]Oh why can't I be making[C] love come[B/G] true? (what's[A] a guy to do?)
Solo
Tonight, I'm down on my knees
Tonight, I'm begging you please
Tonight, tonight oh please
Oh why can't I be making love come true?
(Outro Riff)
 
 -------------------------------------------------------------


Important: The song above is NOT stored on the Chordie server. The original song is hosted at www.guitaretab.com. Chordie works as a search engine and provides on-the-fly formatting. Chordie does not index songs against artists'/composers' will. To remove this song please click here.

Text color:
Chord color:
Chord grids: 
Font size:    
Page size: 

A B/C B/G C
Rate #5 of 6 versions

Jango Player

Login - add to songbook

SHARE PAGE  




You need to log in to post comments