Guitar Tabs, Chords and Lyrics
Major upgrade!! After one year development the new version of Chordie is now online! Please give feedback.


In the Garage  Weezer

Weezer - In The Garage(Acoustic)
Live at Criminal Records, 1994
Tuning:Half-step down(Eb,Ab,Db,Gb,Bb,Eb,)
Intro
[G] [D] [Am] [Em]  
 
 eb|-------------------------|-------0-----------------|
 Bb|-0-----3--------------0--|-1-----------0-----------|
 Gb|----0-----0--2-----------|----2-----2-----0-----0--|
 Db|----------------4--------|-------------------2-----|
 Ab|-------------5-----5-----|-0-----------------------|
 Eb|-3-----------------------|-------------0-----------|

[G] [D] [C] [G6] [C6] [G]  
 
 eb|-------------------------|-------------------------|
 Bb|-0-----3-----------0-----|-------------------------|
 Gb|----0-----0--2--------2--|-0-----0--0--0-----------|
 Db|----------------4--------|----2--------------------|
 Ab|-------------5-----------|-3-----2--0--------------|
 Eb|-3-----------------------|-------------3-----------|

I[C]'ve got the Dungeon [D]Master's [E]Guide.
I[C]"ve got a 12-[D]sided d[E]ie.
I[C]'ve got Ki[D]tty P[G]ryde
An[C]d Nightcrawler t[G]oo
W[C]aiting there for[G] me.
[D] [Em] [D] [Em]  
 
 eb|----------0-----0--0--|-----0--0--0---|
 Bb|------------0----0----|------0--0-----|
 Gb|--------------0---0---|-------0--0----|
 Db|----------------------|---------------|
 Ab|----------------------|---------------|
 Eb|----------------------|---------------|

Yes I do, I do
I[C]'ve got posters o[D]n the w[E]all,
M[C]y favorite rock gr[D]oup, K[E]ISS
I[C]'ve got A[D]ce Fr[G]ehley
I[C]'ve got Peter [G]Criss
W[C]aiting there for[G] me
Yes [D]I [Em]do, [D]I [Em]do
I[G]n the ga[D]rage, [Am]I feel[Em] safe.
N[G]o one c[D]ares
[C] [G6] [C6] [G]  
 
 eb|-0--0--------3--3--3|
 Bb|-1--1--1--1--3--3--3|
 Gb|-0--0--0--0--0--0--0|
 Db|-2--2--0--0--0--0--0|
 Ab|-3--3--2--0--2--2--2|
 Eb|-------------3--3--3|

about my ways.
I[G]n the g[D]arage where[Am] I be[Em]long.
N[G]o one h[D]ears me s[C]ing [G6]thi[C6]s s[G]ong.
I[C]n the g[G]arage
Repeat Intro
I[C]'ve got an electric [D]guit[E]ar.
I[C] play my stupi[D]d so[E]ngs.
I[C] write these st[D]upid w[G]ords
A[C]nd I love every o[G]ne
W[C]aiting there for [G]me.
Yes [D]I [Em]do, [D]I [Em]do.
I[G]n the ga[D]rage, [Am]I feel[Em] safe.
N[G]o one c[D]ares abo[C]ut[G6] my[C6] w[G]ays
I[G]n the g[D]arage where[Am] I be[Em]long.
N[G]o one h[D]ears me s[C]ing [G6]thi[C6]s s[G]ong.
I[C]n the g[G]arage
I[C]n the g[G]arage. Neaarrah!
Solo (played with harmonica)
C D E |C D E
C D G |C G C
G D Em |D Em
I[G]n the ga[D]rage, [Am]I feel[Em] safe.
N[G]o one c[D]ares abo[C]ut[G6] my[C6] w[G]ays
I[G]n the g[D]arage where[Am] I be[Em]long.
N[G]o one h[D]ears me
Em Am C (x2)
No one hears me
N[G]o one h[D]ears me s[C]ing [G6]thi[C6]s s[G]ong.
Am G (x2)
Any questions,e-mail me at crimsonj545@aol.com or leave a comment.
Link to song: http://www.youtube.com/watch?v=VkDw9doIITE

Important: The song above is NOT stored on the Chordie server. The original song is hosted at www.guitaretab.com. Chordie works as a search engine and provides on-the-fly formatting. Chordie does not index songs against artists'/composers' will. To remove this song please click here.

Text color:
Chord color:
Chord grids: 
Font size:    
Page size: 

Am C C6 D E Em G G6
Rate #1 of 5 versions

Jango Player

Login - add to songbook

SHARE PAGE  




You need to log in to post comments