Guitar Tabs, Chords and Lyrics
Major upgrade!! After one year development the new version of Chordie is now online! Please give feedback.


Obvious  Westlife

OBVIOUS
Westlife
Album: Turnaround
Tabbed by Pham Hong Y (Vietnamese)
hongy_bsb@yahoo.com.vn
Intro:
[E] [B] [F#m] [A] [E] [B] [F#m] [A]  
 
 E|-------0--------0---2--2--0--0----------0--------0--2--2--0--0----|
 B|-----0--------4-----2--2--2--2--------0--------4----2--2--2--2----|
 G|---1----------------2--2--2--2------1---------------2--2--2--2----|
 D|-2----------4-------4--4--2--2----2----------4------4--4--2--2----|
 A|----------2--------------------------------2----------------------|
 E|------------------------------------------------------------------|

Verse 1:
Yeah, ooooh...
[E] [B] [F#m] [A]  
 
 E|-------0--------0----------------0----|
 B|-----0--------4--------2-------2------|
 G|---1-------------------------2--------|
 D|-2----------4-------------------------|
 A|----------2----------4-----0----------|
 E|-------------------2-----2------------| (4 times)

We started as friends
But something happened inside me
Now I'm reading into everything
But there's no sign you really like me, baby
Pre-chorus:
Y[E]ou don't ever noti[A]ce when I?m t[C#m]urning on my cha[B]rm
Or[E] wonder why I'm a[A]lways where you a[B]re
Chorus:
I've[E] made it obv[F#m]ious[A]
Done [B]everything but [E]sing it
(I've crushed on yo[F#m]u so long, but o[A]n and on you ge[B]t me wrong)
I'm [E]not so goo[F#m]d with word[A]s
And[B] since you never no[C#m]tice
The[F#m] way that we belo[B]ng
I'll say it in a love [E]song
(Verse 2 the same as verse 1)
I've heard you talk about
(Heard you talk about)
How you want someone just like me (Bryan echo: just like me)
Every time I ask you out
(Time I ask you out)
We never move pass friendly, no no
You don't ever notice how I stare when we're alone
Or wonder why I keep you on the phone
Chorus:
I've made it obvious
Done everything but sing it
(I've crushed on you so long but on and on you get me wrong)
I'm not so good with words
And since you never notice
The way that we belong
I'll say it in a love song
Yeah...
Y[E]ou are my ver[B]y first tho[F#m]ught in the mo[A]rning
And my las[B]t at nightfall
Y[E]ou are the lo[B]ve that cam[F#m]e without warn[A]ing
I[C#m] need you, I [A]want you to kn[B]ow
[E] [F#m] [A] [B]  
 
 E|-------0----------------0--------0----|
 B|-----0--------2-------2--------4------|
 G|---1----------------2-----------------|
 D|-2---------------------------4--------|
 A|------------4-----0--------2----------|
 E|----------2-----2---------------------| (2 times)

I've made it obvious
So finally I'll sing it
(I've crushed on you so long)
I'm not so good with words
Since you never notice
The way that we belong
I'll say it in a love song
(Repeat as Chorus)
The love song I`m sing it until the day you're holding me
I've wanted you so long but on and on you get me wrong
I more than adore you but since you never seem to see
Since you [C#m]never s[A]eem to [B]see
I'll say it in this love[E] song

Important: The song above is NOT stored on the Chordie server. The original song is hosted at www.guitaretab.com. Chordie works as a search engine and provides on-the-fly formatting. Chordie does not index songs against artists'/composers' will. To remove this song please click here.

Text color:
Chord color:
Chord grids: 
Font size:    
Page size: 

A B C#m E F#m
Rate #3 of 4 versions

Jango Player

Login - add to songbook

SHARE PAGE  




You need to log in to post comments