Guitar Tabs, Chords and Lyrics
Server problems seems to be fixed. Chordie has been experiencing problems with songs disappearing. These issues now seems to be fixed, but still verifying the fix. If you find anything strange, please email admin@chordie.com.


Till Death Do Us Part  White Lion

Til Death Do Us Part
Submitted by: paramore_fans@yahoo.com
Key: Bb then C#
Tuning: Standard EADGBe
Chords used:
Bb - x13331
[F] [-] [133211]  
[G#]Eb [-]- [466544]x68886
F/A - x032xx
Cm - x35543
Bb/D - x587xx
[Gm]C# [-]- [355333]x46664
[G#m]G#/C[-] - [466444]x365xx
Ebm - x68876
Bbm - x13321
[G#]C#/[-]F - [466544]143xxx
 
 Intro: Bb--F--G#--Eb-F-

Verse 1:
[Bb] As we talk the golden mile
[F] Down the pretty [G#]isle
I know that you are [Eb]mine
And therešs [F]nothing in this [Bb]world
That I know that I wonšt [F/A]do
To be near you every[Cm]day
Every hour every [F]minute
Refrain:
[Gm]Take my hand and
[F]let me lead the [Eb]way[Eb-Bb/D-Cm-Bb]
Chorus 1:
[Bb] All through your [F]life
Išll be by your s[Gm]ide
 
 F F-Gm-F/A--Bb-Cm--Bb/D-Eb-F-

Till death do us part
[Bb] Išll be your [F]friend
My love will never [Gm]end
Till death do us [Eb]part[F]
Verse 2:
[Bb] When I wake up every[F/A]day
With you lying in my [G#]arms
I wonder if Išm [Eb]dreaming
When I [F]look into your [Bb]eyes
I just canšt believe itšs [F/A]true
That my heart belongs to [Cm]you
Baby you can have it [F]all
(Repeat Refrain and Chorus)
Bridge:
[C#] Therešll be [F#m]good times
[C#] And therešll be [F#m]bad
[C#] But [G#/C]I will s[Bbm]tand
be[G#]side you woman
All the [C#]way
[Ebm] And thru the years
As [G#]life goes on and on
When s[F]now will fall
on winter nights
Išll keep you warm inside
Yeah baby I will
 
 Guitar Solo: Bb--F--Gm--F-F-Gm-F/A--Bb-Cm--Bb/D-Eb-F--|
 Bb--F--Gm--Eb--F--------------------------------------|

Guitar 2: Solo
[Bb] [F] [Gm]  
 
 e|----------------|-----18-17---------|-----------------------|
 B|-13--11---10-11-|-10----------------|----10-----------------|
 G|----------------|-------------12-10-|-12----12-10-12--------|
 D|----------------|-------------------|-----------------12-12-|
 A|----------------|-------------------|-----------------------|
 E|----------------|-------------------|-----------------------|

[F] [F] [Gm] [F/A] [Bb]  
[Bb/D] [Eb] [F]  
 
 e|------------|----|----|--------|---|-------|------|----|----|
 B|------------|----|----|--------|---|-------|-11---|-10-|-11-|
 G|----14-12---|-12-|-10-|---10-8-|---|-8-7---|------|----|----|
 D|-10-------8-|----|----|-7------|-5-|-----7-|------|----|----|
 A|------------|----|----|--------|---|-------|------|----|----|
 E|------------|----|----|--------|---|-------|------|----|----|

[Bb] [F]  
 
 e|-----------------------------------------------|---------------------|
 B|----11-10-11----11-10-11----11-10-11-13--11p10-|-11--10-10--15-14-15-|
 G|-10----------10----------10--------------------|---------------------|
 D|-----------------------------------------------|---------------------|
 A|-----------------------------------------------|---------------------|
 E|-----------------------------------------------|---------------------|

Gm Eb F Bb Chorus
 
 e|-17--15-16-|-15--15-17-18-|-17--22-20-18-|-13--|
 B|-----------|--------------|--------------|-----|
 G|-----------|--------------|--------------|-----|
 D|-----------|--------------|--------------|-----|
 A|-----------|--------------|--------------|-----|
 E|-----------|--------------|--------------|-----|

(Repeat Chorus 1)
Chorus 2: Modulate from Bb to C#
Baby I'll [C#]be there
All thru your [G#]life
Išll be by your [Bbm]side
 
 G# G#-Bbm-G#/C--C#-Ebm--C#/F-F#-G#

Till death do us part
[C#] Baby Išll be your [G#]friend
My love will never [Bbm]end
 
 G# G#-Bbm-G#/C--C#-Ebm--C#/F-F#-G#

Till death do us part
Outro:
Hey baby [C#]be there
baby i'll [F#]be there
all through your [G#]life
and you know that You'll [Bbm]be there
 
 G# G#-Bbm-G#/C--C#-Ebm--C#/F-F#-G#

know that you'll be there waiting forever
Hey baby [C#]be there
baby i'll [F#]be there
all through your [G#]life
and you know that You'll [Bbm]be there
 
 G# G#-Bbm-G#/C--C#-Ebm--C#/F-F#-G#

know that you'll be there waiting forever

Important: The song above is NOT stored on the Chordie server. The original song is hosted at www.guitaretab.com. Chordie works as a search engine and provides on-the-fly formatting. Chordie does not index songs against artists'/composers' will. To remove this song please click here.

Text color:
Chord color:
Chord grids: 
Font size:    
Page size: 

Bb Bb/D Bbm C# Cm Eb Ebm F F# F#m G# G#/C G#m Gm
Rate #1 of 6 versions

Login - add to songbook

SHARE PAGE  



You need to log in to post comments