Guitar Tabs, Chords and Lyrics
Server problems seems to be fixed. Chordie has been experiencing problems with songs disappearing. These issues now seems to be fixed, but still verifying the fix. If you find anything strange, please email admin@chordie.com.


I'm Lonely (but I Ain't That Lonely Yet)  The White Stripes

I've transposed the piano breaks to guitar; they require some thumb work to keep bass
the left hand on a piano, but they sound good considering the higher register.
INTRO:
C s4 C /g C s4 C s4 C /g C s4 C
 
 e|-----1--0-----------1---1-0---------1--0-----------1---1-1--|
 B|-----1--1-----------1---1-1---------1--1-----------1---1-0--|
 G|------------------------------------------------------------|
 D|------------------------------------------------------------|
 A|-3-------------3--3---3-------3---3----------3---3---3------|
 E|-----------(3)-----------------------------3----------------|

VERSE 1:
[C]Well, I miss my mother and I [F]miss being her [C]son
And as crazy as I was, guess I [G]wasn't much fun
Some[C]times I miss her so much I want to [F]hop on the next [C]jet
And I get [C]lonely, but I [G]ain't that lonely [C]yet[Csus4] [C]
CHORUS:
And I [F]love my sister, lord [C]knows how I've missed her
She [F]loves me and she knows I[(F#)] won't [G]forget[Gsus4] [G]
And some[C]times I get jealous of [F]all her little [C]pets
And I get lonely, but I [G]ain't that lonely [C]yet[Csus4] [C]
BREAK 1:
[C] [F] [C] [G]  
 
 e|-0-0-0-0-0-0-0-0-0--1--0-0---------------------0--0--0--0-----0----------------------------------|
 B|---------------------------------------------1---------1--1-4------------------------------------|
 G|-------------------------------2p0---1h2--------------------------------4---3---3-4----3(h4)-----|
 D|-----------------------------------3--------------------------------------5---5------4-------(4)-|
 A|-3------------------3-----3--------------3--------3--------------3-3-----------------------------|
 E|----------------------------1----------------------------------------3---------------------------|

[C] [F] [C] [G] [C]  
 
 e|----0------0------0-0-------------------0----0----0-----1--------------|
 B|-------1-4----4/5---------------------------------1-----0---3----0-----|
 G|-----------------------------2----2---------------0---------0----0-----|
 D|-----------------------------3----3-------------------------0----------|
 A|-3------------------3----------------3-----3----3----3--------------3--|
 E|-----------------------3--1-----1-----------------------------3--------|

INTRO
VERSE 2:
I roll over in bed looking for someone to touch
There's a girl that I know of that don't ask for much
She's homely and she's cranky, and her hair's in a net
And I'm lonely, but I ain't that lonely yet
CHORUS:
I am a [F]friend when I need one, I need [C]someone to be one
I'll [F]take anybody[(F#)] I can [G]get[Gsus4] [G]
Some[C]times I want to call you, but I [F]feel like a [C]pest
And I'm [C]lonely, but I [G]ain't that lonely [C]yet[Csus4] [C]
BREAK 2:
[C] [F] [C]  
 
 e|-0-0-0-0-0-0-0-0-0--1--1--0-1-0------5-5-5-5--5-5----3-----0----0--0--0-----------0----0-|
 B|---------------------------------------------------------1----1----------1-4--1-4----1---|
 G|-----------------------------------------------------------------------------------------|
 D|-----------------------------------------------------------------------------------------|
 A|-3------------------3-------3---------------------3-------------3----------3-------------|
 E|------------------3-------3------1----------1-----------------3----------3---------------|

[G] [C] [F] [C] 
[G] [C]  
 
 e|--------------------------3-3-0--3-3-0-------3-3--0-----------------------0----0----0----1------1--1-----|
 B|----0-----------0----0------------------1-4------------------1----1-------1--1-1--1-1--1-1---------------|
 G|-------0-3--0-3----0---------------------------------------2---------------------------------------------|
 D|---------------------------------------------------------3-----3----3------------------------------------|
 A|------------------------3-----------------3----------------------------3--3----3----3----3------------3--|
 E|-3-------3----3------3-------------------------------3-1-------------------------------------3-----------|

VERSE 3:
I went down to the river filled with regret
Looked down and I wondered if there was any reason left
And just before my lungs could get wet
I'm lonely, but I ain't that lonely yet
CHORUS:
And I [F]love my sister, lord [C]knows how I've missed her
She [F]loves me and she knows I[(F#)] won't [G]forget[Gsus4] [G]
And some[C]times I get jealous of [G]all [F]her little [C]pets
And I get lonely, but I [G]ain't that lonely [C]yet
Yeah, I get lonely, but I [G]ain't that lonely [C]yet[C] [C]

Important: The song above is NOT stored on the Chordie server. The original song is hosted at www.guitaretab.com. Chordie works as a search engine and provides on-the-fly formatting. Chordie does not index songs against artists'/composers' will. To remove this song please click here.

Text color:
Chord color:
Chord grids: 
Font size:    
Page size: 

C Csus4 F G Gsus4
Rate #2 of 5 versions

Login - add to songbook

SHARE PAGE  




You need to log in to post comments