Guitar Tabs, Chords and Lyrics
Major upgrade!! After one year development the new version of Chordie is now online! Please give feedback.


The Nurse  The White Stripes

Marimba:
T: G C G C D G C G
P: G /b C G/d C/e Csus4 G /b C G/d G C G/d
 
 e|----------------------0----0---1---1--1---3--------------------------------------------|
 B|-0----0---1---1---3---1----1---1---1--1---3----0---0---1---3---0----0---0---1---3---0--|
 G|-0----0---0---0---0----------------------------0---0---0---0--------0---0---0---0------|
 D|------------------0---2----2---3---3--3--------------------0--------------------0------|
 A|------2---3---3------------------------------------2---3--------------------3----------|
 E|-3----------------------------------------3----3---------------3----3---3-----------3--|

Piano:
[G] [C] [D] [G]  
 
 e|-------------------------|
 B|-0--------1-----2-----0--|
 G|-0--------0-----3-----0--|
 D|-0--------2-----0-----0--|
 A|-2--------3-----------2--|
 E|-3--------------------3--|

(Ahhhhhhhhhhhhhhhhh)
VERSE 1:
G G G /b C G/d C/e Csus4 Csus4 Csus4 G G G /b C G G G (X~)
The nurse should not be the one who puts salt in your wounds
/b C G G G /b C G/d C/e Csus4 Csus4 Csus4 G G G /b C G G G
But it's always with trust that the poison is fed with a spoon
(X~[G/b])[C] [Bb] [Eb5] [D5] [G]
 
 e|---------------------------------------------------------------------------------------|
 B|-0----1----------3----3-------3---3--4----4---4---3----3--3---------------0--0---------|
 G|-0----0----------3----3-------3---3--3----3---3---2----2--2----0---0--0---0--0---0--0--|
 D|-------------------------------------1----1---1---0----0--0----------------------------|
 A|-2----3------1-------------1-----------------------------------------------------------|
 E|---------------------------------------------------------------3---3--3---3--3---3--3--|

When you're helpless with no one to turn to, a - lone in your room
VERSE 2:
(X~)
You would swear that the one who would care for you never would leave
(X~) (X~) (X~)
She promised and said, "You will always be safe here with me"
(X~)
But promises open the door to be broken to me
Played 2x: (X~) (X~) (X~) (X~) (X~) (X~) (X~) (X~)
CHORUS: P.M. G5 increases throughout
Played 2x:
G /b C G/d C/e Csus4 G /b C G/d C/e Csus4
 
 e|----------------------------------------------0---1---1---3----------------------0---1--|
 B|------0----------0---0--1--------3------------1---1---1------------0---0--1--3---1---1--|
 G|------0----------0---0--0--------0---------------------------------0---0--0--0----------|
 D|---------------------------------0------------2---3---3----------------------0---2---3--|
 A|---------------------2--3----------------------------------------------2--3-------------|
 E|------3----------3----------------------------------------3--------3--------------------|

No, I'm never, no, I'm ne-ver, no, I'm never gonna let you down now
Csus4 G /b C G/d C/e Csus4 G /b C G/d C/e Csus4
 
 e|-1---------------------------------------------0---1---1---3-----------------0---1----|
 B|-1------0---------0---0--1--------3------------1---1---1-------0---0--1--3---1---1----|
 G|--------0---------0---0--0--------0----------------------------0---0--0--0------------|
 D|-3--------------------------------0------------2---3---3-----------------0---2---3----|
 A|----------------------2--3-----------------------------------------2--3---------------|
 E|--------3---------3----------------------------------------3---3----------------------|

No I'm never, no I'm never, no I'm never gonna let you down
G5 (X~) (X~) (X~)
[Bb] [Eb5] [D5] [G]  
BREAK: Guitar and Marimba played simultaneously:
Marimba:
G /b C G/d C/e Csus4 G /b C G/d G C G/d
 
 e|----------------------0----0---1---1--1---3--------------------------------------------|
 B|-0----0---1---1---3---1----1---1---1--1---3----0---0---1---3---0----0---0---1---3---0--|
 G|-0----0---0---0---0----------------------------0---0---0---0--------0---0---0---0------|
 D|------------------0---2----2---3---3--3--------------------0--------------------0------|
 A|------2---3---3------------------------------------2---3--------------------3----------|
 E|-3----------------------------------------3----3---------------3----3---3-----------3--|

(Ahhhhhhhhhhhhhhhhh)
Guitar:
 
 e|-----------------------------------------------------------------8b-8b--8b9-8b10-------|
 B|---------------------------------------------------------------------------------------|
 G|---------------------------------------------------------------------------------------|
 D|---------------------------------------------------------------------------------------|
 A|---------------------------------------------------------------------------------------|
 E|---------------------------------------------------------------------------------------|

Marimba:
G /b C G/d C/e Csus4 G /b C G/d G C G/d
 
 e|----------------------0----0---1---1--1---3--------------------------------------------|
 B|-0----0-------1---3---1----1---1---1--1---3----0---0---1---3---0----0---0---1---3---0--|
 G|-0----0---0---0---0----------------------------0---0---0---0--------0---0---0---0------|
 D|------------------0---2----2---3---3--3--------------------0--------------------0------|
 A|----------2---3------------------------------------2---3--------------------3----------|
 E|-3----3-----------------------------------3----3---------------3----3---3-----------3--|

(Ahhhhhhhhhhhhhhhhh)
Guitar:
 
 e|-----------------------------------------------------8b---8b9---9b10-------------------|
 B|---------------------------------------------------------------------------------------|
 G|---------------------------------------------------------------------------------------|
 D|---------------------------------------------------------------------------------------|
 A|---------------------------------------------------------------------------------------|
 E|---------------------------------------------------------------------------------------|

VERSE 2:
(X~)
The maid that you've hired could never conspire to kill
She's to mother, not quietly smother you when you're most ill
(X~)
The one that you're trusting suspiciously dusting the sill

Important: The song above is NOT stored on the Chordie server. The original song is hosted at www.guitaretab.com. Chordie works as a search engine and provides on-the-fly formatting. Chordie does not index songs against artists'/composers' will. To remove this song please click here.

Text color:
Chord color:
Chord grids: 
Font size:    
Page size: 

Bb C D D5 Eb5 G
Rate #1 of 3 versions

Jango Player

Login - add to songbook

SHARE PAGE  




You need to log in to post comments