Guitar Tabs, Chords and Lyrics
Server problems seems to be fixed. Chordie has been experiencing problems with songs disappearing. These issues now seems to be fixed, but still verifying the fix. If you find anything strange, please email admin@chordie.com.


Rag and Bone  The White Stripes

The White Stripes - Rag And Bone
Chords:
A5: 577xxx
C5: x355xx
D5: x577xx
E5: x799xx
B5: x244xx
Intro
 
 |-----------------------------------------------------------------------------------------------------------------------|
 |-----------------------------------------------------------------------------------------------------------------------|
 |-----------------------------------------------------------------------------------------------------------------------|
 |-----------------------------------------------------------------------------------------------------------------------|
 |------------------------------3(~)---------------------------------5--3(~)----------------------------------------3(~)-|
 |--5----5----5----5----5p3--5----------(5)-5----5----5----5----5p3-------------(5)-5----5----5----5p3----5p3----5-------|
 |----------------------------------------------------------|
 |----------------------------------------------------------|
 |----------------------------------------------------------|
 |----------------------------------------------------------|
 |--3-5---3----3-5---3----3-5---3----3-5---/7---7--3---0----|
 |-------------------------------------------------------5--|

Verse: (Intro progression, without P.M. and with increasing attack)
Jack White: Mmm
Meg White: Rag and bone
Jack: Rag and bone!
Meg: Rag and bone!
Jack: Rag and bone!
Jack: Meg, look at this place.
Meg: What? Ooh!
Jack: Well, this place is like a mansion. It's like a mansion! Look at all this stuff!
Meg: I dunno.
Jack: Look, I see somethin' over there.
Meg: Ooh.
Jack: Man.
 
 |------------------------------------------------------|
 |------------------------------------------------------|
 |------------------------------------------------------|
 |------------------------------------------------------|
 |--------------------------------------------------3b--|
 |--5---------5---------5-----------5-------5p3--5------|

Well, can't you hear, we're sellin' rag and bone
 
 |----------------------------------------------------|
 |----------------------------------------------------|
 |----------------------------------------------------|
 |----------------------------------------------------|
 |---------------------------------------------5--3b--|
 |--(5)-5-------5--------5--------5-----5p3-----------|

Bring out your junk and we'll give it a home
 
 |--------------------------------------------|
 |--------------------------------------------|
 |--------------------------------------------|
 |--------------------------------------------|
 |----------------------------------------3b--|
 |--(5)-5----5------5-------5p3--5p3--5-------|

A broken trumpet or a tele - phone
 
 |-----------------------------------------|
 |-----------------------------------------|
 |-----------------------------------------|
 |-----------------------------------------|
 |--3---5----3b--3---5----3b--3---5----3b--|
 |-----------------------------------------|

Ah, come on! Ah, come on! Ah, come on!
 
 |-------------------------|
 |-------------------------|
 |-------------------------|
 |-------------------------|
 |--3----5-----------------|
 |--------------0-------3--|

Come on and give it to me
Chorus
[A5] [A5] [C5] [A5] [D5] [C5] [A5] [D5] [C5]  
 
 |--------------------------------------------------------------------------------------------------------------|
 |--------------------------------------------------------------------------------------------------------------|
 |------------------------------5b---------------------------------7--5b---------------------------------7--5b--|
 |--7----7----7----7----7----7--5b--------7----7----7----7----7----7--5b--------3----3----3----3----3----7--5b--|
 |--7----7----7----7----7----7------------7----7----7----7----7----5------------3----3----3----3----3----5------|
 |--5----5----5----5----5-3--5--------(5)-5----5----5----5-3--5-3-----------(5)-5----5----5----5----5-3---------|

Yeahh
[D5] [C5] [A5] [D5] [C5] [A5] [D5] [C5] [D5] [E5] [G5]  
 
 |---------------------------------------------------------------|
 |---------------------------------------------------------------|
 |------7----5-------7----3-------7----5---5--7-------9----9-----|
 |------7----5---7---7----3---7---7----5---5--7-------9----9--5--|
 |------5----3---7---5----5---7---5----3---3--5-------7----7--5--|
 |---------------5------------5-------------------------------3--|

Ah, come on! Ah, come on! Ah, come on! C' mon and give it to me!
[A5] [A5] [C5] [A5] [D5] [C5] [A5] [D5] [C5]  
 
 |--------------------------------------------------------------------------------------------------------------|
 |--------------------------------------------------------------------------------------------------------------|
 |------------------------------5b---------------------------------7--5b---------------------------------7--5b--|
 |--7----7----7----7----7----7--5b--------7----7----7----7----7----7--5b--------3----3----3----3----3----7--5b--|
 |--7----7----7----7----7----7------------7----7----7----7----7----5------------3----3----3----3----3----5------|
 |--5----5----5----5----5-3--5--------(5)-5----5----5----5-3--5-3-----------(5)-5----5----5----5----5-3---------|

Rag and bone! Rag and bo - one
[D5] [C5] [A5] [D5] [C5] [A5] [D5] [C5] [D5] [E5] [G5]  
 
 |---------------------------------------------------------------|
 |---------------------------------------------------------------|
 |------7----5-------7----3-------7----5---5--7-------9----9-----|
 |------7----5---7---7----3---7---7----5---5--7-------9----9--5--|
 |------5----3---7---5----5---7---5----3---3--5-------7----7--5--|
 |---------------5------------5-------------------------------3--|

Ah, come on! Ah, come on! Ah, come on! C' mon and give it to me!
Break
[A5] [C5] [D5] [E5] [C5] [G5] [C5] [D5] [E5] [C5] [A5] [C5] [D5] [E5] [C5]  
 
 |-----------------------------------------------------------------------------------------------------|
 |-----------------------------------------------------------------------------------------------------|
 |----------------5/7---7/9--9--5--(0)--------------5/7---7/9--9--5-------------------5/7---7/9--9--5--|
 |--7----7--------5/7---7/9--9--5--(0)-5---5--------5/7---7/9--9--5--(0)-7---7--------5/7---7/9--9--5--|
 |--7----7--------3/5---5/7--7--3--(0)-5---5--------3/5---5/7--7--3--(0)-7---7--------3/5---5/7--7--3--|
 |--5----5-----------------------------3---3-----------------------------5---5-------------------------|

*cough*
G5 E5 D5 C5 B5 A5 N.C.
 
 |---------------------------------------------------------|
 |---------------------------------------------------------|
 |--(0)--------------------------9------7------5----4---2--|
 |--(0)-5---5--------------------9------7------5----4---2--|
 |--(0)-5---5--------------------7------5------3----2---0--|
 |------3---3----------------------------------------------|

All of your pretty, your pretty little rags and bones
Verse:
Jack: Well, man, look at all this.
Meg: Mmm, ooh. What is that?
Jack: You don't want it? You sure you don't want it, man? I can use that....
Jack: Take it.
Jack: It's just things that you don't want, I can use 'em. Meg can use 'em. We can do somethin' with 'em.
We'll make somethin' out 'em, make some money out of 'em at least.
Meg: (This fits me perfect.... Give it to me).
Jack: Hey, if you ain't gonna use it just give it to us. We'll give it a home.
Well, have you got something shiny for me?
Anybody got a Christmas tree?
Ah, can you part with a toilet seat?` `"Rag and bone" is also
Ah, jump up! Ah, jump up! Ah, jump up! slang for the toilet
C'mon and give it to me
Chorus
[A5] [A5] [C5] [A5] [D5] [C5] [A5] [D5] [C5]  
 
 |--------------------------------------------------------------------------------------------------------------|
 |--------------------------------------------------------------------------------------------------------------|
 |------------------------------5b---------------------------------7--5b---------------------------------7--5b--|
 |--7----7----7----7----7----7--5b--------7----7----7----7----7----7--5b--------3----3----3----3----3----7--5b--|
 |--7----7----7----7----7----7------------7----7----7----7----7----5------------3----3----3----3----3----5------|
 |--5----5----5----5----5-3--5--------(5)-5----5----5----5-3--5-3-----------(5)-5----5----5----5----5-3---------|

Rag and bone!
[D5] [C5] [A5] [D5] [C5] [A5] [D5] [C5] [D5] [E5] [C5] [G5]  
 
 |----------------------------------------------------------------|
 |----------------------------------------------------------------|
 |------7----5-------7----3-------7----5---5--7-----------5-5-----|
 |------7----5---7---7----3---7---7----5---5--7-------2---5-5--5--|
 |------5----3---7---5----5---7---5----3---3--5-------2---3-3--5--|
 |---------------5------------5-----------------------0--------3--|

Verse:
[A5] [A5] [C5]  
 
 |-----------------------------------------------|
 |-----------------------------------------------|
 |------------------------------------------5b---|
 |--7----7-------7-------7-------7-----7----5b---|
 |--7----7-------7-------7-------7-----7---------|
 |--5----5-------5-------5-------5-3---5---------|

We want to get it, granny, while it's hot
[A5] [D5] [C5]  
 
 |---------------------------------------------------|
 |---------------------------------------------------|
 |-------------------------------------------7---5b--|
 |------7-----7----------7------7-------7----7---5b--|
 |------7-----7----------7------7-------7----5-------|
 |--(5)-5-----5----------5------5--3----5-3----------|

You think it's trash, granny, but it's not
[A5] [D5] [C5]  
 
 |------------------------------------------------|
 |------------------------------------------------|
 |---------------------------------------7----5b--|
 |------3-----3--------3----3-----3------7----5b--|
 |------3-----3--------3----3-----3------5--------|
 |--(5)-5-----5--------5----5-----5--3------------|

Oh, we'll be takin' whatever you've got
[D5] [C5] [A5] [D5] [C5] [A5] [D5] [C5] [D5] [E5] [G5]  
 
 |---------------------------------------------------------------|
 |---------------------------------------------------------------|
 |------7----5-------7----3-------7----5---5--7-------9----9-----|
 |------7----5---7---7----3---7---7----5---5--7-------9----9--5--|
 |------5----3---7---5----5---7---5----3---3--5-------7----7--5--|
 |---------------5------------5-------------------------------3--|

Oh, give up! Oh, give up! Oh, give up! C' mon and give it to me!
Break
[A5] [C5] [D5] [E5] [C5] [G5] [C5] [D5] [E5] [C5] [A5] [C5] [D5] [E5] [C5]  
 
 |----------------------------------------------------------------------------------------------------|
 |----------------------------------------------------------------------------------------------------|
 |---------------5/7---7/9--9--5--(0)--------------5/7---7/9--9--5-------------------5/7---7/9--9--5--|
 |-7----7--------5/7---7/9--9--5--(0)-5---5--------5/7---7/9--9--5--(0)-7---7--------5/7---7/9--9--5--|
 |-7----7--------3/5---5/7--7--3--(0)-5---5--------3/5---5/7--7--3--(0)-7---7--------3/5---5/7--7--3--|
 |-5----5-----------------------------3---3-----------------------------5---5-------------------------|

Whooo!
G5 D5 E5 D5 E5 A5 N.C.
 
 |-----------------------------------------------------------|
 |-----------------------------------------------------------|
 |--(0)----------------------------7------9------7----9------|
 |--(0)-5---5----------------------7------9------7----9---7--|
 |--(0)-5---5----------------------5------7------5----7---7--|
 |------3---3---------------------------------------------5--|

All of your pretty, you're pretty little rags and bones
Verse:
Meg: I saw some stuff in here, are you gonna give it to us?
Jack: Aw - Aw, Meg, don't be rude.
Meg: Or not?
Jack: They might need it. If you don't want it, we'll take it. If you don't want to give it to us, we keep walkin' by.
We keep goin', we're not tired, but - Got plenty of places to go, lots of homes we ain't been to yet, on the West Side,
the Southwest side, Middle East, rich house, dog house, outhouse, old folks' house, house for unwed mothers,
halfway homes, catacombs, twilight zones. Lookin' for techniques, turntables, to gramaphones. So take a last lick of
your ice cream cone, and lock up what you still want to own. But please be kind -
Meg: Take your time.
Jack: And don't rewind.
Meg: It's fine.
Jack: All of you're pretty, you're pretty little rags and bones.
Chorus
[A5] [A5] [C5] [A5] [D5] [C5] [A5] [D5] [C5]  
 
 |---------------------------------------------------------------------------------------------------------------------|
 |---------------------------------------------------------------------------------------------------------------------|
 |------------------------------5b------------------------------------7------5b---------------------------------7--5b--|
 |--7----7----7----7----7----7--5b--------7----7----7----7-x---7------7------5b--------3----3----3----3----3----7--5b--|
 |--7----7----7----7----7----7------------7----7----7----7-x---7------5----------------3----3----3----3----3----5------|
 |--5----5----5----5----5-3--5--------(5)-5----5----5----5-x---5-------------------(5)-5----5----5----5----5-3---------|

Yeah! Your pretty little rags and bones
[D5] [C5] [A5] [D5] [C5] [A5] [D5] [C5] [D5] [E5] [G5]  
 
 |---------------------------------------------------------------|
 |---------------------------------------------------------------|
 |------7----5-------7----3-------7----5---5--7-------9----9-----|
 |------7----5---7---7----3---7---7----5---5--7-------9----9--5--|
 |------5----3---7---5----5---7---5----3---3--5-------7----7--5--|
 |---------------5------------5-------------------------------3--|

Ah, jump up! Ah, jump up! Ah, jump up! C' mon and give it to me!
[A5] [A5] [C5] [A5] [D5] [C5] [A5] [D5] [C5]  
 
 |---------------------------------------------------------------------------------------------------------------------|
 |---------------------------------------------------------------------------------------------------------------------|
 |------------------------------5b------------------------------------7------5b---------------------------------7--5b--|
 |--7----7----7----7----7----7--5b--------7----7----7----7-x---7------7------5b--------3----3----3----3----3----7--5b--|
 |--7----7----7----7----7----7------------7----7----7----7-x---7------5----------------3----3----3----3----3----5------|
 |--5----5----5----5----5-3--5--------(5)-5----5----5----5-x---5-------------------(5)-5----5----5----5----5-3---------|

Ah-ah-ohh Your pretty little rags and bones
[D5] [C5] [A5] [D5] [C5] [A5] [D5] [C5] [D5] [E5] [G5]  
 
 |----------------------------------------------------------------|
 |----------------------------------------------------------------|
 |------7----5-------7----3-------7----5---5----7------9----9-----|
 |------7----5---7---7----3---7---7----5---5----7------9----9--5--|
 |------5----3---7---5----5---7---5----3---3----5------7----7--5--|
 |---------------5------------5--------------------------------3--|

Ah, come on! Ah, come on! Ah, come on! Come on and give it to us!
Break
[A5] [C5] [D5] [E5] [C5] [G5] [C5] [D5] [E5] [C5] [A5] [C5] [D5] [E5] [C5]  
 
 |-----------------------------------------------------------------------------------------------------|
 |-----------------------------------------------------------------------------------------------------|
 |----------------5/7---7/9--9--5--(0)--------------5/7---7/9--9--5-------------------5/7---7/9--9--5--|
 |--7----7--------5/7---7/9--9--5--(0)-5---5--------5/7---7/9--9--5--(0)-7---7--------5/7---7/9--9--5--|
 |--7----7--------3/5---5/7--7--3--(0)-5---5--------3/5---5/7--7--3--(0)-7---7--------3/5---5/7--7--3--|
 |--5----5-----------------------------3---3-----------------------------5---5-------------------------|

Yeah! Yeah-ah Ah, yeah
[G5] [D5] [E5] [D5] [C5] [B5]  
 
 |----------------------------------------|
 |----------------------------------------|
 |--(0)--------------7--9----7----5----4--|
 |--(0)-5---5--------7--9----7----5----4--|
 |--(0)-5---5--------5--7----5----3----2--|
 |------3---3-----------------------------|

[D5] [E5] [D5] [C5] [C5]  
 
 |--------------------------------|
 |--------------------------------|
 |--7--9----7--7----5--5----4--4--|
 |--7--9----7--7----5--5----4--4--|
 |--5--7----5--5----3--3----2--2--|
 |--------------------------------|

Jack: Yeah!
[D5] [E5] [D5] [C5] [C5]  
 
 |--------------------------------|
 |--------------------------------|
 |--7--9----7--7----5--5----4--4--|
 |--7--9----7--7----5--5----4--4--|
 |--5--7----5--5----3--3----2--2--|
 |--------------------------------|

Meg: Yeah!
[D5] [E5] [D5] [C5] [B5] [D5] [E5] [D5] [C5] [B5] [D5] [E5] [D5] [C5] [B5] [A5]  
 
 |--------------------------------------------------------------------------------------------------------|
 |--------------------------------------------------------------------------------------------------------|
 |--7--9----7--7----5--5----4--4----7--9----7--7----5--5----4--4----7--9----7--7----5--5----4--4----2--2--|
 |--7--9----7--7----5--5----4--4----7--9----7--7----5--5----4--4----7--9----7--7----5--5----4--4----2--2--|
 |--5--7----5--5----3--3----2--2----5--7----5--5----3--3----2--2----5--7----5--5----3--3----2--2----0--0--|
 |--------------------------------------------------------------------------------------------------------|

J&M: Yeah! Yeah! Yeah! Yeah! Yeah! Yeah! Yeah! Yeah! Yeah! Yeah! Yeah! Yeah! Yeah!

Important: The song above is NOT stored on the Chordie server. The original song is hosted at www.guitaretab.com. Chordie works as a search engine and provides on-the-fly formatting. Chordie does not index songs against artists'/composers' will. To remove this song please click here.

Text color:
Chord color:
Chord grids: 
Font size:    
Page size: 

A5 B5 C5 D5 E5 G5
Rate #1 of 2 versions

Jango Player

Login - add to songbook

SHARE PAGE  




You need to log in to post comments