Guitar Tabs, Chords and Lyrics
Server problems seems to be fixed. Chordie has been experiencing problems with songs disappearing. These issues now seems to be fixed, but still verifying the fix. If you find anything strange, please email admin@chordie.com.


Bone Broke  The White Stripes

INTRO:
Played 4x:
[A5] [B5] [D5]  
 
 e|-------------------------------|
 B|---------7--7----7--7----7--7--|
 G|---------7--7----7--7----7--7--|
 D|-7--9----7--7----7--7----7--7--|
 A|-7--9--------------------------|
 E|-5--7--------------------------|

[E5] [G5] [B5]  
 
 e|-----------------------------------------------------------------------|
 B|-(0)----------------(0)--------------------------7--7----7--7----7--7--|
 G|-(0)----------------(0)--------------------------7--7----7--7----7--7--|
 D|-(0)--2---2---2-----(0)--5---5---5-----5/---9----7--7----7--7----7--7--|
 A|-(0)--2---2---2-----(0)--5---5---5-----5/---9--------------------------|
 E|------0---0---0----------3---3---3-----3/---7--------------------------|

[A5] [B5] [D5]  
 
 e|-------------------------------|
 B|---------7--7----7--7----7--7--|
 G|---------7--7----7--7----7--7--|
 D|-7--9----7--7----7--7----7--7--|
 A|-7--9--------------------------|
 E|-5--7--------------------------|

Hey! Well!
VERSE 1:
[A5] [B5] [D5]  
 
 e|----------------------------------------------|
 B|-----------7--7------------7--7---------7--7--|
 G|-----------7--7------------7--7---------7--7--|
 D|-7--9------7--7------------7--7---------7--7--|
 A|-7--9-----------------------------------------|
 E|-5--7-----------------------------------------|

Look closer, you can see how I've been runnin'
[A5] [B5] [D5]  
 
 e|---------------------------------------|
 B|---------7--7--------7--7--------7--7--|
 G|---------7--7--------7--7--------7--7--|
 D|-7--9----7--7--------7--7--------7--7--|
 A|-7--9----------------------------------|
 E|-5--7----------------------------------|

I got a dollar bill in the cockpit
[A5] [B5] [D5]  
 
 e|---------------------------------------|
 B|---------7--7---------7--7-------7--7--|
 G|---------7--7---------7--7-------7--7--|
 D|-7--9----7--7---------7--7-------7--7--|
 A|-7--9----------------------------------|
 E|-5--7----------------------------------|

Surprised being white is a black hole
[A5] [B5] [D5]  
 
 e|-------------------------------------|
 B|---------7--7-------7--7-------7--7--|
 G|---------7--7-------7--7-------7--7--|
 D|-7--9----7--7-------7--7-------7--7--|
 A|-7--9--------------------------------|
 E|-5--7--------------------------------|

I got another job at the liquor store
[E5]  
 
 e|------------------------------------------------------------------------|
 B|--------------------------------------------------7--7----7--7----7--7--|
 G|--------------------------------------------------7--7----7--7----7--7--|
 D|-2----2----2-----(0)--5-----5-----5------5/--9----7--7----7--7----7--7--|
 A|-2----2----2-----(0)--5-----5-----5------5/--9--------------------------|
 E|-0----0----0-----(0)--3-----3-----3------3/--7--------------------------|

Damn! Oh well, I'm bone broke
Hey!
[A5] [B5] [D5]  
 
 e|-------------------------------|
 B|---------7--7----7--7----7--7--|
 G|---------7--7----7--7----7--7--|
 D|-7--9----7--7----7--7----7--7--|
 A|-7--9--------------------------|
 E|-5--7--------------------------|

VERSE 2:
They got a white pony in the stable
And ride him when the doggie isn't able
But he don't really care because they pay him
But still the black suit is gonna shake him
Down! Oh well, I'm bone broke
BRIDGE:
[B5] [/a] [B5] Yeah! Broke as I'll ever be!
/e A5 /e B5
Look another way, girl, I'm tellin' ya
God gave seven minutes right [A5]to ya[B5]
And your mother put her money into pla[A5]tinum
G5 F#5 /e F#5
And now you'll never have to pay attention
[F#5]T /8^
\8
 
 e|--------------------------------------------------------------------------------------------|
 B|--------------------------------3--5--7--5--3--3----7--5--3----7--5--3b--3b----/7----7---7--|
 G|-----------------------------4-------------------------------------------------------7---7--|
 D|-4-4-4-4-4-4-4-4-4-4-4-4-4------------------------------------------------------------------|
 A|-4-4-4-4-4-4-4-4-4-4-4-4-4------------------------------------------------------------------|
 E|-2-2-2-2-2-2-2-2-2-2-2-2-2------------------------------------------------------------------|

Do ya? Do ya?
INTRO
Ah ha!
Yeah!
VERSE 3:
I'm leanin' on a brick with my nails
I'm tellin' 'em the money's in the mail
Keep shoutin' that my bones never fake it
But now the brick bank is gonna break it
Down! Oh well, I'm bone broke
BRIDGE:
B5 /e B5 B5 /e B5
A5 /e B5
Look another way, girl, I'm tellin' ya
A5 /e B5
God gave seven minutes right to ya
Your mother put her money into pla[A5]tinum
G5 F#5 /e F#5
So that you wouldn't have to pay attention
[F#5]T /8^
\8
 
 e|----------------------------------------------------------------------------------------------------|
 B|--------------------------------3-3--5--3--5--5b7r5--3----5b7r5--3-----------------5-5-5-b7~--(r5)--|
 G|-----------------------------4----------------------------------------4---4---4---------------------|
 D|-4-4-4-4-4-4-4-4-4-4-4-4-4--------------------------------------------------------------------------|
 A|-4-4-4-4-4-4-4-4-4-4-4-4-4--------------------------------------------------------------------------|
 E|-2-2-2-2-2-2-2-2-2-2-2-2-2--------------------------------------------------------------------------|

Right? Ohhhhhhh
[B5] 

Important: The song above is NOT stored on the Chordie server. The original song is hosted at www.guitaretab.com. Chordie works as a search engine and provides on-the-fly formatting. Chordie does not index songs against artists'/composers' will. To remove this song please click here.

Text color:
Chord color:
Chord grids: 
Font size:    
Page size: 

A5 B5 D5 E5 F#5 G5
Rate #2 of 5 versions

Jango Player

Login - add to songbook

SHARE PAGE  



You need to log in to post comments