Guitar Tabs, Chords and Lyrics
Server problems seems to be fixed. Chordie has been experiencing problems with songs disappearing. These issues now seems to be fixed, but still verifying the fix. If you find anything strange, please email admin@chordie.com.


Dreaming From the Waist  The Who

THE WHO
(intro-pedal A throughout)
[F#m] [E] [Asus4] [Dm] [Asus4] [D]  
 
 |-------17-|------------|-------0---5--0-5--0----|
 |--10-9----|--5---6-----|--5----7---7--7-7--7----|
 |--11-9----|--7---7-----|--7----7---7--7-7--7----|
 |--11-9----|--7---7-----|--7----7---7--7-7--7----|
 |-0--------|-0----------|-0----------------------|
 |----------|------------|------------------------|

[F] [Fmaj7] [Esus4] [E5]  
 
 |--1-----1----|------------|
 |--1-----3----|------------|
 |--2-----2----|-2----------|
 |--3-----3----|-2-----2----|
 |-0-----------|-2-----2----|
 |-------------|-0-----0----|

A A G G D2 D2 A A A G G D D A x2
 
 ||-9----7----12----9-----|-9----7----5----5--------||
 ||-10---8----10----10----|-10---8----7----5--------||
 ||-9----7----11----9-----|-9----7----7----6--------||
 ||-11---9----12----11----|-11---9----7----7--------||
 ||-0---------------0-----|-0-----------------------||
 ||-----------------------|-------------------------||

A A G G D D A A A G G D * A
 
 ||--------------------------|-----------3----0------||
 ||-----------3--------------|-----------3--3-3------||
 ||-2----0----2----2---------|-2----0-------2---2----||
 ||-2----0----0----2---------|-2----0-------0-0-2----||
 ||-0----x---------0---------|-0----x---------x-0----||
 ||------3-------------------|------3---------3------||

*occasionally the low g only
I [A]feel like I [G]want to break [D]out ...[A]
I've got that...
[E5]wide [F#m]awake, give-and-[G]take...[Bm]
 
 ||-------------------|---------------------|
 ||-------------------|--------------(3)----|
 ||-------------------|---------------4-----|
 ||-2----4------------|--5------------4-----|
 ||-2----4------------|--5------------2-----|
 ||-0----2------------|--3------------------|

in-the-[A]morning[D/A] ...[A].[A] [D] [A] [D] [A]
 
 |---------------------|--------------||
 |-------------3---2---|---3-2-3-2----||
 |------2------2---2---|---2-2-2-2----||
 |------2------4---2---|-2-4-2-4-2----||
 |------0------0---0---|-0------------||
 |---------------------|-----------3/-||

bend
I've got the hots for the sluts in the well....
(chorus - intro pattern)
I'm dreaming, from the ....
I drive like a priest and then ....
I've got that run-to-a-pub, over-....
I'm dreaming, but I know it's a.....

Important: The song above is NOT stored on the Chordie server. The original song is hosted at www.guitaretab.com. Chordie works as a search engine and provides on-the-fly formatting. Chordie does not index songs against artists'/composers' will. To remove this song please click here.

Text color:
Chord color:
Chord grids: 
Font size:    
Page size: 

A Asus4 Bm D Dm E E5 Esus4 F F#m Fmaj7 G
Rate #1 of 3 versions

Login - add to songbook

SHARE PAGE  



You need to log in to post comments