Guitar Tabs, Chords and Lyrics
Server problems seems to be fixed. Chordie has been experiencing problems with songs disappearing. These issues now seems to be fixed, but still verifying the fix. If you find anything strange, please email admin@chordie.com.


A Legal Matter  The Who

 
 --------------------------------------------------------------

THE WHO - A LEGAL MATTER (Townsend) Released as a single on
11th March 1966 with INSTANT PARTY as the B side.
 
 --------------------------------------------------------------

Tabbed by:PJVillanueva
I told you why I changed my mind
I got bored by playing with time
I know you thought you had me nailed
But I've freed my head from your garden rails
Now it's a legal matter, baby
You got me on the run
It's a legal matter, baby
A legal matter from now on
My mind's lost in a household fog
Wedding gowns and catalogs
Kitchen furnishings and houses
Maternity clothes and baby's trousers
Now it's a legal matter, baby
Marryin's no fun
It's a legal matter, baby
A legal matter from now on
I told you why I changed my mind
I got bored by playing with time
I know you thought you had me nailed
Well, I've freed my head from your garden rails
Now it's a legal matter, baby
You got me on the run
It's a legal matter, baby
A legal matter from now on
You ain't the first and you ain't the last
I gain and lose my women fast
I never want to make them cry
I just get bored, don't ask me why
Just wanna keep doing all the dirty little things I do
And not work all day in an office just to bring my money back to you
Sorry, baby
 
 e|5------ ------- 3------ ----5--|----5-- ------- 3------ -------|
 B|--------5---------------5------|--------5---------------5------|
 G|-------------------------------|-------------------------------|
 D|-------------------------------|-------------------------------|
 A|-------------------------------|-------------------------------|
 E|-------------------------------|-------------------------------|
 e|5------ ------- 3------ ----5--|----5-- ------- 3------ -------|
 B|--------5---------------5------|--------5---------------5------|
 G|-------------------------------|-------------------------------|
 D|-------------------------------|-------------------------------|
 A|-------------------------------|-------------------------------|
 E|-------------------------------|-------------------------------|

[A]  
 
 e|0------ 0------ ------- -------|0------ ------- ------- -------|
 B|2-------2----------------------|2------------------------------|
 G|2-------2----------------------|2------------------------------|
 D|2-------2----------------------|2------------------------------|
 A|0-------0----------------------|0------------------------------|
 E|-------------------------------|-------------------------------|
 e|0------ ------- ------- ----0--|0------ ------- ------- -------|
 B|2---------------------------2--|2------------------------------|
 G|2---------------------------2--|2------------------------------|
 D|2---------------------------2--|2------------------------------|
 A|0---------------------------0--|0------------------------------|
 E|-------------------------------|-------------------------------|
 e|0------ 0------ ------- ----0--|0------ ------- ------- -------|
 B|2-------2-------------------2--|2------------------------------|
 G|2-------2-------------------2--|2------------------------------|
 D|2-------2-------------------2--|2------------------------------|
 A|0-------0-------------------0--|0------------------------------|
 E|-------------------------------|-------------------------------|
 e|0------ 0------ ------- ----0--|0------ ------- ------- -------|
 B|2-------2-------------------2--|2------------------------------|
 G|2-------2-------------------2--|2------------------------------|
 D|2-------2-------------------2--|2------------------------------|
 A|0-------0-------------------0--|0------------------------------|
 E|-------------------------------|-------------------------------|

I
[D] [E]  
 
 e|0------ 0------ ------- -------|2------ ------- 0------ -------|
 B|2-------2----------------------|3---------------0--------------|
 G|2-------2----------------------|2---------------1--------------|
 D|2-------2----------------------|0---------------2--------------|
 A|0-------0----------------------|----------------2--------------|
 E|-------------------------------|----------------0--------------|

told you why I changed my mind
[A]  
 
 e|0------ ------- ------- -------|0------ ------- ------- -------|
 B|2------------------------------|2------------------------------|
 G|2------------------------------|2------------------------------|
 D|2------------------------------|2------------------------------|
 A|0------------------------------|0------------------------------|
 E|-------------------------------|-------------------------------|

[D] [E]  
 
 e|0------ 0------ ------- ----2--|2------ ------- 0------ ----0--|
 B|2-------2-------------------3--|3---------------0-----------0--|
 G|2-------2-------------------2--|2---------------1-----------1--|
 D|2-------2-------------------0--|0---------------2-----------2--|
 A|0-------0----------------------|----------------2-----------2--|
 E|-------------------------------|----------------0-----------0--|

I got bored by playing with time
[A]  
 
 e|0------ 0------ ------- ----0--|0------ ------- 0------ -------|
 B|2-------2-------------------2--|2---------------0--------------|
 G|2-------2-------------------2--|2---------------0--------------|
 D|2-------2-------------------2--|2---------------0--------------|
 A|0-------0-------------------0--|0---------------0--------------|
 E|-------------------------------|-------------------------------|

I
[D] [E]  
 
 e|0------ 0------ ------- -------|2------ ------- 0------ -------|
 B|2-------2----------------------|3---------------0--------------|
 G|2-------2----------------------|2---------------1--------------|
 D|2-------2----------------------|0---------------2--------------|
 A|0-------0----------------------|----------------2--------------|
 E|-------------------------------|----------------0--------------|

know you thought you had me nailed
[A]  
 
 e|0------ 0------ ------- ----0--|0------ ------- 0------ -------|
 B|2-------2-------------------2--|2---------------0--------------|
 G|2-------2-------------------2--|2---------------0--------------|
 D|2-------2-------------------2--|2---------------0--------------|
 A|0-------0-------------------0--|0---------------0--------------|
 E|-------------------------------|-------------------------------|

But I've
[D] [E]  
 
 e|0------ 0------ ------- -------|2------ ------- 0------ ----0--|
 B|2-------2----------------------|3---------------0-----------0--|
 G|2-------2----------------------|2---------------1-----------1--|
 D|2-------2----------------------|0---------------2-----------2--|
 A|0-------0----------------------|----------------2-----------2--|
 E|-------------------------------|----------------0-----------0--|

freed my head from your garden rails
[A]  
 
 e|0------ 0------ ------- -------|0------ ------- ------- -------|
 B|2-------2----------------------|2------------------------------|
 G|2-------2----------------------|2------------------------------|
 D|2-------2----------------------|2------------------------------|
 A|0-------0----------------------|0------------------------------|
 E|-------------------------------|-------------------------------|

It's a
[D] [E] [A]  
 
 e|2------ 2------ 0------ 0------|0------ 0------ ----0-- 0------|
 B|3-------3-------0-------0------|2-------2-----------2---2------|
 G|2-------2-------1-------1------|2-------2-----------2---2------|
 D|0-------0-------2-------2------|2-------2-----------2---2------|
 A|----------------2-------2------|0-------0-----------0---0------|
 E|----------------0-------0------|-------------------------------|

legal matter, baby you
[D] [E] [A]  
 
 e|2------ 2------ 0------ -------|0------ 0------ ----0-- 0------|
 B|3-------3-------0--------------|2-------2-----------2---2------|
 G|2-------2-------1--------------|2-------2-----------2---2------|
 D|0-------0-------2--------------|2-------2-----------2---2------|
 A|----------------2--------------|0-------0-----------0---0------|
 E|----------------0--------------|-------------------------------|

got me on the run a
[D] [E] [A]  
 
 e|2------ 2------ 0------ 0------|0------ 0------ ----0-- 0------|
 B|3-------3-------0-------0------|2-------2-----------2---2------|
 G|2-------2-------1-------1------|2-------2-----------2---2------|
 D|0-------0-------2-------2------|2-------2-----------2---2------|
 A|----------------2-------2------|0-------0-----------0---0------|
 E|----------------0-------0------|-------------------------------|

legal matter, baby A
[D]  
 
 e|2------ 2------ 2------ 2------|2------ 2------ ----2-- 2------|
 B|3-------3-------3-------3------|3-------3-----------3---3------|
 G|2-------2-------2-------2------|2-------2-----------2---2------|
 D|0-------0-------0-------0------|0-------0-----------0---0------|
 A|-------------------------------|-------------------------------|
 E|-------------------------------|-------------------------------|

legal matter from now
[E]  
 
 e|0------ 0------ ----0-- 0------|0------ ----0-- ----0-- 0------|
 B|0-------0-----------0---0------|0-----------0-------0---0------|
 G|1-------1-----------1---1------|1-----------1-------1---1------|
 D|2-------2-----------2---2------|2-----------2-------2---2------|
 A|2-------2-----------2---2------|2-----------2-------2---2------|
 E|0-------0-----------0---0------|0-----------0-------0---0------|

on
 
 e|------- 5------ ------- -------|------- 5------ ------- -------|
 B|--------7-----------5---------5|--------7-----------5---------5|
 G|--------------------4B6R4-----4B6-------------------4B6R4-----4B
 D|-------------------------------|-------------------------------|
 A|-------------------------------|-------------------------------|
 E|-------------------------------|-------------------------------|
 e|------- 5------ ------- -------|------- ------- ------- -------|
 B|--------7-----------5---------5|-------------------------------|
 G|6-------------------4B6R4-----4B6------------------------------|
 D|-------------------------------|-------------------------------|
 A|-------------------------------|-------------------------------|
 E|-------------------------------|-------------------------------|

[A] [D] [E]  
 
 e|0------ ------- ------- -------|2------ ------- 0------ 0------|
 B|2------------------------------|3---------------0-------0------|
 G|2------------------------------|2---------------1-------1------|
 D|2------------------------------|0---------------2-------2------|
 A|0------------------------------|----------------2-------2------|
 E|-------------------------------|----------------0-------0------|

My mind's lost in a household fog
[A]  
 
 e|0------ 0------ ------- 0------|0------ ------- 0------ -------|
 B|2-------2---------------2------|2---------------0--------------|
 G|2-------2---------------2------|2---------------0--------------|
 D|2-------2---------------2------|2---------------0--------------|
 A|0-------0---------------0------|0---------------0--------------|
 E|-------------------------------|-------------------------------|

[D] [E]  
 
 e|0------ 0------ ------- 0------|2------ ------- 0------ -------|
 B|2-------2---------------2------|3---------------0--------------|
 G|2-------2---------------2------|2---------------1--------------|
 D|2-------2---------------2------|0---------------2--------------|
 A|0-------0---------------0------|----------------2--------------|
 E|-------------------------------|----------------0--------------|

Wedding gowns and catalogs
[A]  
 
 e|0------ ------- ------- ----0--|0------ ------- 0------ -------|
 B|2---------------------------2--|2---------------0--------------|
 G|2---------------------------2--|2---------------0--------------|
 D|2---------------------------2--|2---------------0--------------|
 A|0---------------------------0--|0---------------0--------------|
 E|-------------------------------|-------------------------------|

[D] [E]  
 
 e|0------ ------- ------- -------|2------ ------- 0------ -------|
 B|2------------------------------|3---------------0--------------|
 G|2------------------------------|2---------------1--------------|
 D|2------------------------------|0---------------2--------------|
 A|0------------------------------|----------------2--------------|
 E|-------------------------------|----------------0--------------|

Kitchen furnishings and houses
[A]  
 
 e|0------ 0------ ------- -------|0------ 0------ ------- -------|
 B|2-------2----------------------|2-------2----------------------|
 G|2-------2----------------------|2-------2----------------------|
 D|2-------2----------------------|2-------2----------------------|
 A|0-------0----------------------|0-------0----------------------|
 E|-------------------------------|-------------------------------|

Ma..
[D] [E]  
 
 e|0------ ------- ------- -------|2------ ------- 0------ -------|
 B|2------------------------------|3---------------0--------------|
 G|2------------------------------|2---------------1--------------|
 D|2------------------------------|0---------------2--------------|
 A|0------------------------------|----------------2--------------|
 E|-------------------------------|----------------0--------------|

.ternity clothes and baby's trousers
[A]  
 
 e|0------ 0------ ------- -------|0------ ------- ------- -------|
 B|2-------2----------------------|2------------------------------|
 G|2-------2----------------------|2------------------------------|
 D|2-------2----------------------|2------------------------------|
 A|0-------0----------------------|0------------------------------|
 E|-------------------------------|-------------------------------| 

It's a
[D] [E] [A]  
 
 e|2------ 2------ 0------ 0------|0------ 0------ ----0-- 0------|
 B|3-------3-------0-------0------|2-------2-----------2---2------|
 G|2-------2-------1-------1------|2-------2-----------2---2------|
 D|0-------0-------2-------2------|2-------2-----------2---2------|
 A|----------------2-------2------|0-------0-----------0---0------|
 E|----------------0-------0------|-------------------------------|

legal matter, baby you
[D] [E] [A]  
 
 e|2------ 2------ 0---0-- 0------|0------ 0------ ----0-- 0------|
 B|3-------3-------0---0---0------|2-------2-----------2---2------|
 G|2-------2-------1---1---1------|2-------2-----------2---2------|
 D|0-------0-------2---2---2------|2-------2-----------2---2------|
 A|----------------2---2---2------|0-------0-----------0---0------|
 E|----------------0---0---0------|-------------------------------|

got me on the run a
[D] [E] [A]  
 
 e|2------ 2------ 0------ 0------|0------ 0------ ------- -------|
 B|3-------3-------0-------0------|2-------2----------------------|
 G|2-------2-------1-------1------|2-------2----------------------|
 D|0-------0-------2-------2------|2-------2----------------------|
 A|----------------2-------2------|0-------0----------------------|
 E|----------------0-------0------|-------------------------------|

legal matter, baby A
[D]  
 
 e|2------ 2------ 2------ 2------|2------ 2------ 2---2-- 2------|
 B|3-------3-------3-------3------|3-------3-------3---3---3------|
 G|2-------2-------2-------2------|2-------2-------2---2---2------|
 D|0-------0-------0-------0------|0-------0-------0---0---0------|
 A|-------------------------------|-------------------------------|
 E|-------------------------------|-------------------------------|

legal matter from now
[E]  
 
 e|0------ 0------ 0------ 0------|0------ 0------ 0------ 0------|
 B|0-------0-------0-------0------|0-------0-------0-------0------|
 G|1-------1-------1-------1------|1-------1-------1-------1------|
 D|2-------2-------2-------2------|2-------2-------2-------2------|
 A|2-------2-------2-------2------|2-------2-------2-------2------|
 E|0-------0-------0-------0------|0-------0-------0-------0------|

on
X X X X
 
 e|------- ------- ------- -------|------- ------- ------- -------|
 B|-------------------------------|-------------------------------|
 G|-------------------------------|-------------------------------|
 D|-------------------------------|-------------------------------|
 A|-------------------------------|-------------------------------|
 E|-------------------------------|-------------------------------|

X X X X x X
 
 e|------- ------- ------- -------|------- ------- ------- -------|
 B|-------------------------------|-------------------------------|
 G|-------------------------------|-------------------------------|
 D|-------------------------------|-------------------------------|
 A|-------------------------------|-------------------------------|
 E|-------------------------------|-------------------------------|
 e|5------ ------- 3------ ----5--|----5-- ------- 3------ -------|
 B|--------5---------------5------|--------5---------------5------|
 G|-------------------------------|-------------------------------|
 D|-------------------------------|-------------------------------|
 A|-------------------------------|-------------------------------|
 E|-------------------------------|-------------------------------|

x
 
 e|5------ ------- 3------ ----5--|----5-- ------- 3------ -------|
 B|--------5---------------5------|--------5---------------5------|
 G|-------------------------------|-------------------------------|
 D|-------------------------------|-------------------------------|
 A|-------------------------------|-------------------------------|
 E|-------------------------------|-------------------------------| 

[A]  
 
 e|0------ 0------ ------- -------|0------ ------- ----0-- 0------|
 B|2-------2----------------------|2-------------------2---2------|
 G|2-------2----------------------|2-------------------2---2------|
 D|2-------2----------------------|2-------------------2---2------|
 A|0-------0----------------------|0-------------------0---0------|
 E|-------------------------------|-------------------------------|

[G]  
 
 e|0------ 0------ ------- -------|3------ ----3-- 3------ ----3--|
 B|2-------2----------------------|3-----------3---3-----------3--|
 G|2-------2----------------------|0-----------0---0-----------0--|
 D|2-------2----------------------|0-----------0---0-----------0--|
 A|0-------0----------------------|2-----------2---2-----------2--|
 E|-------------------------------|3-----------3---3-----------3--|

[A]  
 
 e|0------ 0------ ------- -------|0------ 0------ ----0-- 0------|
 B|2-------2----------------------|2-------2-----------2---2------|
 G|2-------2----------------------|2-------2-----------2---2------|
 D|2-------2----------------------|2-------2-----------2---2------|
 A|0-------0----------------------|0-------0-----------0---0------|
 E|-------------------------------|-------------------------------|

[G]  
 
 e|0------ 0------ ------- -------|3------ ----3-- 3------ -------|
 B|2-------2----------------------|3-----------3---3--------------|
 G|2-------2----------------------|0-----------0---0--------------|
 D|2-------2----------------------|0-----------0---0--------------|
 A|0-------0----------------------|2-----------2---2--------------|
 E|-------------------------------|3-----------3---3--------------|

I
[A] [D] [E]  
 
 e|0------ 0------ ------- -------|2------ ------- 0------ -------|
 B|2-------2----------------------|3---------------0--------------|
 G|2-------2----------------------|2---------------1--------------|
 D|2-------2----------------------|0---------------2--------------|
 A|0-------0----------------------|----------------2--------------|
 E|-------------------------------|----------------0--------------|

told you why I changed my mind
[A]  
 
 e|------- 0------ ----0-- 0------|0------ ----0-- 0------ 0------|
 B|--------2-----------2---2------|2-----------2---2-------2------|
 G|--------2-----------2---2------|2-----------2---2-------2------|
 D|--------2-----------2---2------|2-----------2---2-------2------|
 A|--------0-----------0---0------|0-----------0---0-------0------|
 E|-------------------------------|-------------------------------|

[D] [E]  
 
 e|0------ 0------ ------- -------|2------ ------- 0------ -------|
 B|2-------2----------------------|3---------------0--------------|
 G|2-------2----------------------|2---------------1--------------|
 D|2-------2----------------------|0---------------2--------------|
 A|0-------0----------------------|----------------2--------------|
 E|-------------------------------|----------------0--------------|

I got bored by playing with time
[A]  
 
 e|0------ 0------ ------- -------|0------ ------- ------- ----0--|
 B|2-------2----------------------|2---------------------------2--|
 G|0-------0----------------------|2---------------------------2--|
 D|2-------2----------------------|2---------------------------2--|
 A|0-------0----------------------|0---------------------------0--|
 E|-------------------------------|-------------------------------|

I
[D] [E]  
 
 e|0------ 0------ ------- 0------|2------ ------- 0------ -------|
 B|2-------2---------------2------|3---------------0--------------|
 G|2-------2---------------2------|2---------------1--------------|
 D|2-------2---------------2------|0---------------2--------------|
 A|0-------0---------------0------|----------------2--------------|
 E|-------------------------------|----------------0--------------|

know you thought you had me nailed
[A]  
 
 e|0------ ------- ------- -------|0------ ------- ------- -------|
 B|2------------------------------|2------------------------------|
 G|2------------------------------|2------------------------------|
 D|2------------------------------|2------------------------------|
 A|0------------------------------|0------------------------------|
 E|-------------------------------|-------------------------------|

But I've
[D] [E]  
 
 e|0------ ------- ------- -------|2------ ------- 0------ -------|
 B|2------------------------------|3---------------0--------------|
 G|2------------------------------|2---------------1--------------|
 D|2------------------------------|0---------------2--------------|
 A|0------------------------------|----------------2--------------|
 E|-------------------------------|----------------0--------------|

freed my head from your garden rails
[A]  
 
 e|0------ ------- ------- -------|------- ------- ------- -------|
 B|2------------------------------|-------------------------------|
 G|2------------------------------|-------------------------------|
 D|2------------------------------|-------------------------------|
 A|0------------------------------|-------------------------------|
 E|-------------------------------|-------------------------------|

Now it's a
[D] [E] [A]  
 
 e|2------ 2------ 0------ 0------|0------ 0------ ----0-- 0------|
 B|3-------3-------0-------0------|2-------2-----------2---2------|
 G|2-------2-------1-------1------|2-------2-----------2---2------|
 D|0-------0-------2-------2------|2-------2-----------2---2------|
 A|----------------2-------2------|0-------0-----------0---0------|
 E|----------------0-------0------|-------------------------------|

legal matter, baby you
[D] [E] [A]  
 
 e|2------ 2------ 0------ 0------|0------ 0------ ----0-- 0------|
 B|3-------3-------0-------0------|2-------2-----------2---2------|
 G|2-------2-------1-------1------|2-------2-----------2---2------|
 D|0-------0-------2-------2------|2-------2-----------2---2------|
 A|----------------2-------2------|0-------0-----------0---0------|
 E|----------------0-------0------|-------------------------------|

got me on the run a
[D] [E] [A]  
 
 e|2------ 2------ 0------ 0------|0------ 0------ ----0-- 0------|
 B|3-------3-------0-------0------|2-------2-----------2---2------|
 G|2-------2-------1-------1------|2-------2-----------2---2------|
 D|0-------0-------2-------2------|2-------2-----------2---2------|
 A|----------------2-------2------|0-------0-----------0---0------|
 E|----------------0-------0------|-------------------------------|

legal matter, baby A
[D]  
 
 e|2------ 2------ ----2-- 2------|2------ ----2-- ----2-- 2------|
 B|3-------3-----------3---3------|3-----------3-------3---3------|
 G|2-------2-----------2---2------|2-----------2-------2---2------|
 D|0-------0-----------0---0------|0-----------0-------0---0------|
 A|-------------------------------|-------------------------------|
 E|-------------------------------|-------------------------------|

legal matter from now
[E]  
 
 e|0------ 0------ ----0-- 0------|0------ ------- ------- -------|
 B|0-------0-----------0---0------|0------------------------------|
 G|1-------1-----------1---1------|1------------------------------|
 D|2-------2-----------2---2------|2------------------------------|
 A|2-------2-----------2---2------|2------------------------------|
 E|0-------0-----------0---0------|0------------------------------|

on
 
 e|------- 5------ ------- -------|------- 5------ ------- -------|
 B|--------7-----------5---------5|--------7-----------5---------5|
 G|--------------------4B6R4-----4B6-------------------4B6R4-----4B
 D|-------------------------------|-------------------------------|
 A|-------------------------------|-------------------------------|
 E|-------------------------------|-------------------------------|
 e|------- 5------ ------- -------|------- ------- ------- -------|
 B|--------7-----------5----------|-------------------------------|
 G|6-------------------4B6R4-----5/6------------------------------|
 D|------------------------------6/7------------------------------|
 A|-------------------------------|-------------------------------|
 E|-------------------------------|-------------------------------|

You
[A] [D] [E]  
 
 e|0------ 0------ ----0-- 0------|2------ ------- 0------ 0------|
 B|2-------2-----------2---2------|3---------------0-------0------|
 G|2-------2-----------2---2------|2---------------1-------1------|
 D|2-------2-----------2---2------|0---------------2-------2------|
 A|0-------0-----------0---0------|----------------2-------2------|
 E|-------------------------------|----------------0-------0------|

ain't the first and you ain't the last I
[A] [D] [E]  
 
 e|0------ 0---0-- 0------ 0------|2------ 2------ 0------ 0------|
 B|2-------2---2---2-------2------|3-------3-------0-------0------|
 G|2-------2---2---2-------2------|2-------2-------1-------1------|
 D|2-------2---2---2-------2------|0-------0-------2-------2------|
 A|0-------0---0---0-------0------|----------------2-------2------|
 E|-------------------------------|----------------0-------0------|

gain and lose my women fast I
[A] [D] [E]  
 
 e|0------ 0------ 0---0-- 0------|2------ 2------ 0------ 0------|
 B|2-------2-------2---2---2------|3-------3-------0-------0------|
 G|2-------2-------2---2---2------|2-------2-------1-------1------|
 D|2-------2-------2---2---2------|0-------0-------2-------2------|
 A|0-------0-------0---0---0------|----------------2-------2------|
 E|-------------------------------|----------------0-------0------|

never want to make them cry I
[A] [D] [E]  
 
 e|0------ 0------ ----0-- 0------|2------ 2------ 0------ 0------|
 B|2-------2-----------2---2------|3-------3-------0-------0------|
 G|2-------2-----------2---2------|2-------2-------1-------1------|
 D|2-------2-----------2---2------|0-------0-------2-------2------|
 A|0-------0-----------0---0------|----------------2-------2------|
 E|-------------------------------|----------------0-------0------|

just get bored, don't ask me why
[D]  
 
 e|2------ 2---2-- 2---2-- 2---2--|2------ 2---2-- 2---2-- 2---2--|
 B|3-------3---3---3---3---3---3--|3-------3---3---3---3---3---3--|
 G|2-------2---2---2---2---2---2--|2-------2---2---2---2---2---2--|
 D|0-------0---0---0---0---0---0--|0-------0---0---0---0---0---0--|
 A|-------------------------------|-------------------------------|
 E|-------------------------------|-------------------------------|

Just wanna keep doing all the
 
 e|2------ 2---2-- 2---2-- 2---2--|2------ 2---2-- 2---2-- 2------|
 B|3-------3---3---3---3---3---3--|3-------3---3---3---3---3------|
 G|2-------2---2---2---2---2---2--|2-------2---2---2---2---2------|
 D|0-------0---0---0---0---0---0--|0-------0---0---0---0---0------|
 A|-------------------------------|-------------------------------|
 E|-------------------------------|-------------------------------|

dirty little things I do
[E]  
 
 e|0------ 0---0-- 0---0-- 0---0--|0------ 0---0-- 0---0-- 0---0--|
 B|0-------0---0---0---0---0---0--|0-------0---0---0---0---0---0--|
 G|1-------1---1---1---1---1---1--|1-------1---1---1---1---1---1--|
 D|2-------2---2---2---2---2---2--|2-------2---2---2---2---2---2--|
 A|2-------2---2---2---2---2---2--|2-------2---2---2---2---2---2--|
 E|0-------0---0---0---0---0---0--|0-------0---0---0---0---0---0--|

Not work all day in an office just to
 
 e|0------ 0---0-- 0---0-- 0------|0------ 0---0-- 0---0-- 0------|
 B|0-------0---0---0---0---0------|0-------0---0---0---0---0------|
 G|1-------1---1---1---1---1------|1-------1---1---1---1---1------|
 D|2-------2---2---2---2---2------|2-------2---2---2---2---2------|
 A|2-------2---2---2---2---2------|2-------2---2---2---2---2------|
 E|0-------0---0---0---0---0------|0-------0---0---0---0---0------|

bring my money back to you Sorry,
[A] [G]  
 
 e|0------ 0------ ------- -------|3------ ------- 3------ -------|
 B|2-------2----------------------|3---------------3--------------|
 G|2-------2----------------------|0---------------0--------------|
 D|2-------2----------------------|0---------------0--------------|
 A|0-------0----------------------|2---------------2--------------|
 E|-------------------------------|3---------------3--------------|

baby
[A] [G] [A]  
 
 e|0------ 0------ ------- -------|------- 3------ ------- 0------|
 B|2-------2----------------------|--------3---------------2------|
 G|2-------2----------------------|--------0---------------2------|
 D|2-------2----------------------|--------0---------------2------|
 A|0-------0----------------------|--------2---------------0------|
 E|-------------------------------|--------3----------------------|
 e|5------ ------- 3------ ----5--|----5-- ------- 3------ -------|
 B|--------5---------------5------|--------5---------------5------|
 G|-------------------------------|-------------------------------|
 D|-------------------------------|-------------------------------|
 A|-------------------------------|-------------------------------|
 E|-------------------------------|-------------------------------|
 e|5------ ------- 3------ ----5--|----5-- ------- 3------ -------|
 B|--------5---------------5------|--------5---------------5------|
 G|-------------------------------|-------------------------------|
 D|-------------------------------|-------------------------------|
 A|-------------------------------|-------------------------------|
 E|-------------------------------|-------------------------------|
 e|5------ ------- 3------ ----5--|----5-- ------- 3------ -------|
 B|--------5---------------5------|--------5---------------5------|
 G|-------------------------------|-------------------------------|
 D|-------------------------------|-------------------------------|
 A|-------------------------------|-------------------------------|
 E|-------------------------------|-------------------------------|

.............................Fade..............................
 
 e|5------ ------- 3------ ----5--|----5-- ------- 3------ -------|
 B|--------5---------------5------|--------5---------------5------|
 G|-------------------------------|-------------------------------|
 D|-------------------------------|-------------------------------|
 A|-------------------------------|-------------------------------|
 E|-------------------------------|-------------------------------|

...............................................................
B Bend
R Release
/ Slide up
\ Slide down
H Hammer-on
P Pull-off
~ Vibrato
+ Harmonic
x Mute note
. Play note like a dot in standard notation
^ Ties two notes together
(. Pause

Important: The song above is NOT stored on the Chordie server. The original song is hosted at www.guitaretab.com. Chordie works as a search engine and provides on-the-fly formatting. Chordie does not index songs against artists'/composers' will. To remove this song please click here.

Text color:
Chord color:
Chord grids: 
Font size:    
Page size: 

A D E G
Rate #2 of 6 versions

Login - add to songbook

SHARE PAGE  



You need to log in to post comments