Guitar Tabs, Chords and Lyrics
Server problems seems to be fixed. Chordie has been experiencing problems with songs disappearing. These issues now seems to be fixed, but still verifying the fix. If you find anything strange, please email admin@chordie.com.


A Man in a Purple Dress   The Who

 
 |-----------|-----------|-----------|-----------|
 |--0----1---|-1---------|--0----1---|-1---------|
 |---0----0--|--0----0---|---0----0--|--0----0---|
 |----0h2--0h|2--------0-|----0h2--0h|2--------0-|
 |0----------|----0------|0----------|----0------|
 |-----------|-----------|-----------|-----------|

 


 


 |G C |C G |


 How dare you wear a robe to preside


 


 |[3/8] |[6/8] | |


 |G C |C G |C D7add4


 How dare you cover your head to hide your face from God


 


 How dare you smile from behind your beard


 To hide the fact


 


 |[3/8] |[6/8] | |


 Your heart's a-feared, and waive your rod


 

 
 ------|

 


 --|


 --|


 --|


 --|


 

 
 ------|

 


 


 [cborus] 


 |[6/8]


 |C C |C G G |


 How dare you be the one to assess


 

 
 |0------0-0----0|0--------0----|
 |1------0-1----0|1------0-0----|
 |0------0-0----0|0------0-0----|
 |2------0-2----0|2------0-0----|
 |0------0-0----0|0------0-0----|
 |---------------|--------------|

 


 


 |C C |C G |


 Me, in this God-forsaken mess


 


 | |[3/8] |[6/8] | |


 |C C |C |Dadd4ii |C |


 You, a man in a purple dress A man in a purple dress


 

 
 |0---0-0------0|0---0-|----------------|0---------------|
 |1---0-1------0|1---0-|7---------------|1---------------|
 |0---0-0------0|0---0-|7---------------|0---------------|
 |2---0-2------0|2---0-|7---------------|2---------------|
 |0---0-0------0|0-----|0---------------|0---------------|
 |--------------|------|0---------------|----------------|

 


 


 [repeat intro] 


 


 |G D7add4 |C |G D7add4|C |


 You are all the same Gilded and absurd


 

 
 (0)------(0)--------|0----(0)----(0)---|0-----(0)|
 |0--------3---------|1----|0------3----|1------0-|
 |0--------0---------|0----|0------0----|0------0-|
 |0--------4---------|2----|0------4----|2------0-|
 |0--------0---------|0----|0------0----|0------0-|
 |-------------------|-----|------------|---------|

 


 


 Regal, fast to blame


 Rulers by lost word


 


 |C D7add4 |Cii D7add4|Gadd4 | | | |


 Men above men or prats with your high hats You


 

 
 |0---------0-----|0--------0---|0----------|------|-----|----0|
 |1---------3-----|5--------7---|10---------|------|-----|----0|
 |0---------0-----|0--------0---|0----------|------|-----|----0|
 |2---------4-----|5--------7---|12---------|------|-----|----0|
 |0---------0-----|0--------0---|0----------|------|-----|----0|
 |----------------|-------------|-----------|------|-----|-----|

 


 


 |C C |G |


 priest, you mullah so high (You)


 

 
 |0-----------0--------|-------(0)-0--|
 |1-------0---1--------|0------(1)-0--|
 |0-------0---0--------|0------(0)-0--|
 |2-------0---2--------|0------(2)-0--|
 |0-------0---0--------|0------(0)-0--|
 |---------------------|--------------|

 


 


 You pope, you wise rabbi


 


 |C |Dadd4ii|C |G


 You're invisible to me, like vapour from the sea


 

 
 --------|0----0----|-------|~0--------------|
 --------|1----1----|7------|~1--------------|
 --------|0----0----|7------|~0--------------|
 --------|2----2----|7------|~2--------------|
 --------|0----0----|0------|----------------|
 --------|----------|-------|----------------|


Important: The song above is NOT stored on the Chordie server. The original song is hosted at www.guitaretab.com. Chordie works as a search engine and provides on-the-fly formatting. Chordie does not index songs against artists'/composers' will. To remove this song please click here.

This song is displayed as text-only. Transposing and tuning is only available for chordpro-songs.
Rate #1 of 3 versions

Login - add to songbook

SHARE PAGE  



You need to log in to post comments