Guitar Tabs, Chords and Lyrics
Update 25:10. 13:00. Site is back up running again. Songbooks are recovered. Woring on getting search back up..


Dream Song   Widespread Panic

 
 |-----|----------|----------|
 |-----|----------|----------|
 |--0--|--0--0-0--|--0--0-0--|
 |-3-0-|------3-0-|------3-0-|
 |-----|-3-2------|-3-2------|
 |-----|----3-----|----3-----|

 


 


 Verse 1:


 Take your sleep


 You will dream anything


 You know you will


 Because you've lived


 So many dreams before


 Take your sleep


 


 In between the verses, the familiar panic progression:


 harm


 

 
 |-----0-/0-0-0-0---------00/0-0-0-0-0-0-0-6----------|
 |-----1-/3-3-1--1-------1-1/3-3-1-4-4-4-4-6---12-----|
 |--0--0-/0-0-0---0-----0--0/0-0-0-0-0-0-0-0---12-----|
 |-3-0-2-/4-4-2----2---2---2/4-4-2-5-5-5-5-0---12-----|
 |-----3-/5-5-3-----3-3----3/5-5-3-6-6-6-6-5----------|
 |-----3-/5-5-3------3-----3/5-5-3-6-6-6-6-6----------|


Important: The song above is NOT stored on the Chordie server. The original song is hosted at www.guitaretab.com. Chordie works as a search engine and provides on-the-fly formatting. Chordie does not index songs against artists'/composers' will. To remove this song please click here.

This song is displayed as text-only. Transposing and tuning is only available for chordpro-songs.
Rate #2 of 3 versions

Jango Player

Login - add to songbook

SHARE PAGE  




You need to log in to post comments