Guitar Tabs, Chords and Lyrics
Major upgrade!! After one year development the new version of Chordie is now online! Please give feedback.


C. Brown  Widespread Panic

Transcribed by: Will Dorton
Intro:
 
 |--2--3--2-3-5-5-3-2-3-2-0-2-0----|
 |--3--3------------------------3--|
 |--2--2---------------------------|
 |--0--0---------------------------|
 |---------------------------------|
 |---------------------------------|

[D]  
Play the following lick at the end of each line in a verse:
 
 |--------3-----------3------|
 |--1-----3-----1-----3------|
 |--2-----0-----2-----0------|
 |--0-----0-----0-----0------|
 |--3-2-0-2-----3-2-0-2------|
 |--------3-2-0-------3-2-0--|

[C] [G] [C] [G]  
Verse 1:
[D] C. Brown wakes from bed
Brushes his teeth and he combs his head for [C]scho[G]ol[C] [G]
[D] Out the door and down the street
Down to the corner and a bus and some friends
That he's su[C]pposed to meet[G] [C] [G]
But [D]there, not to his surprise
His friends have gone and they've told C a [C]lie[G] [C] [G]
Chorus:
 
 |---3-------0------0----2----|
 |---3-------3--(p)-2----3----|
 |---0-------2------2----2----|
 |---0-------2------2----0----|
 |---2-------0------0----0----|
 |---3------------------------|

[G] [Asus4] [A] [D]  
[G] But you can [Asus4]walk on[A] with [D]me
[G] You don't [Asus4]even need [A]to say a [D]word
[G] You don't have to [Asus4]worry [A]about the [C]others[C] [C] [C] [C#] [D]
Verse 2:
I C (see) him and he runs up fast
Kicks at the air his friends watch him fall and then laugh
Charlie really likes his friends
But in his heart he knows that
sometimes a dog is as good as any man
Trying to do as we should
That doesn't always rhyme with doing what feels good
Chorus:
But you can sit in the grass; it feels good
You don't even need to think a word
You don't have to worry, don't worry
Verse 3:
Charlie there is drawing a gun
Right there in the square he's sketched Lucy on the run
Aims his eye, cocks his head
In a cloud of dust, dear old Lucy's gone
Charlie's only trying the golden rule
Draw unto others as they have been drawn to you
Chorus:
And you can walk on home with me
You don't even need to think a word
You don't have to worry...
end on C > G > C > G > D

Important: The song above is NOT stored on the Chordie server. The original song is hosted at www.guitaretab.com. Chordie works as a search engine and provides on-the-fly formatting. Chordie does not index songs against artists'/composers' will. To remove this song please click here.

Text color:
Chord color:
Chord grids: 
Font size:    
Page size: 

A Asus4 C C# D G
Rate #2 of 5 versions

Jango Player

Login - add to songbook

SHARE PAGE  



You need to log in to post comments