Guitar Tabs, Chords and Lyrics
Server problems seems to be fixed. Chordie has been experiencing problems with songs disappearing. These issues now seems to be fixed, but still verifying the fix. If you find anything strange, please email admin@chordie.com.


Doom Town  Wipers

Song: Doom Town
Artist: Wipers
Album: Over The Edge
Year: 1982
An alternative version with a few different playing ideas, based on the tab by John Sixkiller.
Intro - Part one
 
 E------------------------------------|
 B------------------------------------|
 G------------------------------------|
 D------------------------------------|
 A--9-10-9-7-7-9-9-9-9-9-9-9-7-9-9-9--|
 E--0--0-0-0-0-0-0-0-0-0-0-0-0-0-0-0--|

Intro - Part two
 
 E---------------------------------------------------------------------|
 B---------------------------------------------------------------------|
 G--7-7-7-7-7-7-7-7--6-6-6-6-6-6-6-6--6-6-6-6-6-6-6-6--4-4-4-4-4-4-4-4-|
 D--5-5-5-5-5-5-5-5--4-4-4-4-4-4-4-4--4-4-4-4-4-4-4-4--2-2-2-2-2-2-2-2-|
 A--5-5-5-5-5-5-5-5--4-4-4-4-4-4-4-4--4-4-4-4-4-4-4-4--2-2-2-2-2-2-2-2-|
 E---------------------------------------------------------------------|

Intro - Part three (also chorus...roughly)
Add in picked notes after playing the full G and F#m chords - am unable to work out the
notes, due to stupidity.
 
 E--3----------------2------------------3---------------2-------------|
 B--3----------------2------------------3---------------2-------------|
 G--4----------------2------------------4---------------2-------------|
 D--5----------------4------------------5---------------4-------------|
 A--5----------------4------------------5---------------4-------------|
 E--3----------------2------------------3---------------2-------------|
 E------------------------------------|
 B------------------------------------|
 G------------------------------------|
 D--5-x-5--x-x-x--4-x-4--x-x-x--------|
 A--5-x-5--x-x-x--4-x-4--x-x-x--------|
 E--3-x-3--x-x-x--2-x-2--x-x-x--------|

Verse - can be played as chords; B G (barre sounds best)A F#
 
 E------------------------------------------------------------------------------|
 B------------------------------------------------------------------------------|
 G--11-11-11-11-11-11-11-11--7-7-7-7-7-7-7-7--9-9-9-9-9-9-9-9--6-6-6-6-6-6-6-6--|
 D---9--9--9--9--9--9--9--9--5-5-5-5-5-5-5-5--9-9-9-9-9-9-9-9--6-6-6-6-6-6-6-6--|
 A---9--9--9--9--9--9--9--9--5-5-5-5-5-5-5-5--7-7-7-7-7-7-7-7--4-4-4-4-4-4-4-4--|
 E------------------------------------------------------------------------------|

Chorus - see intro part 3.
Lyrics and chords:
[B]Life's incompl[G]ete - o[A]ut on the s[F#]treets
Live in a [G]doom t[F#]own
Nothing'll ever change - remains the same
Live in a doom town
Doom town
People's blank stares - nobody cares
Live in a doom town
You can never win - living innocent
Live in a doom town

Important: The song above is NOT stored on the Chordie server. The original song is hosted at www.guitaretab.com. Chordie works as a search engine and provides on-the-fly formatting. Chordie does not index songs against artists'/composers' will. To remove this song please click here.

Text color:
Chord color:
Chord grids: 
Font size:    
Page size: 

A B F# G
Rate #1 of 2 versions

Jango Player

Login - add to songbook

SHARE PAGE  




You need to log in to post comments