Guitar Tabs, Chords and Lyrics
Server problems seems to be fixed. Chordie has been experiencing problems with songs disappearing. These issues now seems to be fixed, but still verifying the fix. If you find anything strange, please email admin@chordie.com.


All I Need  Within Temptation

This is a mixture of chords and tabbing, but if you want all tabbing, go here:
http://www.ultimate-guitar.com/tabs/w/within_temptation/all_i_need_tab.htm . I did
not tab that, nor do not claim any credit for it.
All I Need by Within Temptation
Tuning: Half-Step Down (or Standard if desired)
Strumming Pattern: D DUDU
Intro:
 
 e|---------------------------------------------------------------------------|
 B|---------0h-1p-0----------0h1p-0----------------------------0h1p-0---------|
 G|-----2----------------2----------0---------0------------0----------0-------|
 D|---2---2------------2---2--------------3-----3--------0---0----------------|
 A|-0----------------0------------------3---3-----3---------------------------|
 E|-----------------------------------1----------------3----------------------|

Verse 1:
 
 e|---------------------------------------------------------------------------|
 B|---------0h-1p-0----------0h1p-0-------------------------------0h1p-0------|
 G|-----2----------------2----------0---------0-------------0-------------0---|
 D|---2---2------------2---2---------------3-----3--------0---0---------------|
 A|-0----------------0-------------------3---3-----3--------------------------|
 E|------------------------------------1----------------3---------------------|

I'm dying to catch my breath, oh why don't i ever learn.
 
 e|---------------------------------------------------------------------------|
 B|---------0h-1p-0----------0h1p-0----------------------------0h1p-0---------|
 G|-----2----------------2----------0---------0------------0----------0-------|
 D|---2---2------------2---2--------------3-----3--------0---0----------------|
 A|-0----------------0------------------3---3-----3---------------------------|
 E|-----------------------------------1----------------3----------------------|

I've lost all my trust that i'm sure we try to, turn it around
Pre-Chorus:
 
 e|---------------------------------------------------------------------------|
 B|-------------------------------------------0-------------------------------|
 G|---------0--------------------0--------2-----2-------2-------0-------------|
 D|-----3-----3----------3-----0---0----2---2-----2---2---2---0---0-----------|
 A|---3---3-----3------3---3----------0-------------0-------------------------|
 E|-1----------------1-------3------------------------------3----------1------|

Can you still see the heart of me
 
 e|---------------------------------------------------------------------------|
 B|-------------------------------------------0-------------------------------|
 G|---------0----------------0------------0-----0--------0--------------4/5---|
 D|-----3-----3----------3-----3--------0---0------0---0---0-------4----------|
 A|---3---3-----3------3---3-----3-----------------------------2--------------|
 E|----------------1----------------3----------------3------------------------|

all my agony fades away, when you hold me in your embrace
[C]Don't turn me [Am]down
for all [G]I [F]need
make my heart a better [G]place
give me something I can [C]believe
Don't turn me [Am]down
you're far from the [G]door [F]now
don't let it [Am]close
(short inbetween strumming)
[F] [G] [C]  
Verse 2:
 
 e|---------------------------------------------------------------------------|
 B|---------0h-1p-0----------0h1p-0----------------------------0h1p-0---------|
 G|-----2----------------2----------0---------0------------0----------0-------|
 D|---2---2------------2---2--------------3-----3--------0---0----------------|
 A|-0----------------0------------------3---3-----3---------------------------|
 E|-----------------------------------1----------------3----------------------|

I'm here on the edge again. I wish I could let it go
 
 e|---------------------------------------------------------------------------|
 B|---------0h-1p-0----------0h1p-0----------------------------0h1p-0---------|
 G|-----2----------------2----------0---------0------------0----------0-------|
 D|---2---2------------2---2--------------3-----3--------0---0----------------|
 A|-0----------------0------------------3---3-----3---------------------------|
 E|-----------------------------------1----------------3----------------------|

I know that I'm only one step away, from turning around
Pre-Chorus:
 
 e|---------------------------------------------------------------------------|
 B|-------------------------------------------0-------------------------------|
 G|---------0--------------------0--------2-----2-------2-------0-------------|
 D|-----3-----3----------3-----0---0----2---2-----2---2---2---0---0-----------|
 A|---3---3-----3------3---3----------0-------------0-------------------------|
 E|-1----------------1-------3------------------------------3----------1------|

Can you still see the heart of me?
 
 e|---------------------------------------------------------------------------|
 B|-------------------------------------------0-------------------------------|
 G|---------0----------------0------------0-----0--------0--------------4/5---|
 D|-----3-----3----------3-----3--------0---0------0---0---0-------4----------|
 A|---3---3-----3------3---3-----3-----------------------------2--------------|
 E|----------------1----------------3----------------3------------------------|

All my agony fades away, when you hold me in your embrace
[C]Don't turn me [Am]down
for all [G]I [F]need
make my heart a better [G]place
give me something I can [C]believe
Don't tear me [Am]down
What's left [G]of[F] me
Make my [G]heart a better [Am]place
[F]I've tried many [G]times but nothing was [Am]real
Make it [G]fade [F]away
Don't [D]tear me [E]do[E7]wn
[F]I want to believe that [G]this is for [Am]real
[E]Save me [E7]from my [F]fear
Don't [D]tear me [E]do[E7]wn
[C]Don't tear me [Am]down
For all [G]I [F]need
Make my heart a better [G]place
[C]Don't tear me [Am]down
For all I [G]ne[F]ed
Make my heart a better [G]place
Give me something I can [C]believe
Don't tear me [Am]down
What's left [G]of[F] me
Make my [G]heart a better [Am]place
Make my [G]heart a better [Am]place

Important: The song above is NOT stored on the Chordie server. The original song is hosted at www.guitaretab.com. Chordie works as a search engine and provides on-the-fly formatting. Chordie does not index songs against artists'/composers' will. To remove this song please click here.

Text color:
Chord color:
Chord grids: 
Font size:    
Page size: 

Am C D E E7 F G
Rate #1 of 11 versions

Jango Player

Login - add to songbook

SHARE PAGE  



You need to log in to post comments