Guitar Tabs, Chords and Lyrics
Server problems seems to be fixed. Chordie has been experiencing problems with songs disappearing. These issues now seems to be fixed, but still verifying the fix. If you find anything strange, please email admin@chordie.com.


Venice Lockjaw  Women

by Women
Tabbed by ZorakIsStained
soniclife19@gmail.com
Guitar 1 part written out, Guitar 2 strums chords written above. Sorry for the spacing.
[C] [Em] [Dm]  
 
 E|-------------|--------|-------------|--------|-------------------5----|
 B|------15-----|--------|-------------|--------|-6---5----6---5---------|
 G|-------------|--------|-------------|--------|-7----------------------|
 D|-------------|--------|-9-----7-----|-5------|------------------------|
 A|-15----------|--------|-------------|--------|------------------------|
 E|-------------|--------|-------------|--------|------------------------|

[A] [G] [C]  
 
 E|--------------------|-----------------|------10------------|--------|
 B|-------5------------|-5---------------|----------8---------|--------|
 G|-----------7---6----|-----7---4-------|-5------------------|--------|
 D|--------------------|-------------5---|--------------------|--------|
 A|--------------------|-----------------|--------------------|--------|
 E|--------------------|-----------------|--------------------|--------|

[Em] [Dm] [A]  
 
 E|-------------|--------|-------------------5----|--------------------|
 B|-------------|--------|-6---5----6---5---------|-------5------------|
 G|-------------|--------|-7----------------------|-----------7---6----|
 D|-9-----7-----|-5------|------------------------|--------------------|
 A|-------------|--------|------------------------|--------------------|
 E|-------------|--------|------------------------|--------------------|

[G] [Bm] [Em]  
 
 E|-----------------|------19--------19------|------19--------19------|
 B|-17--15----------|------------------------|------------------------|
 G|---------17--16--|----------19--------19--|----------19--------19--|
 D|-----------------|------------------------|------------------------|
 A|-----------------|------------------------|------------------------|
 E|-----------------|------------------------|------------------------|

[Bm] [B] [Em] [D]  
 
 E|---19--------19------|-------------|---------19--------------19------|
 B|---------------------|-------------|---------------------15----------|
 G|-------19--------19--|-20----19----|-----19------19------------------|
 D|---------------------|-------------|-16--------------16--------------|
 A|---------------------|-------------|-----------------------------19--|
 E|---------------------|-------------|---------------------------------|

[G] [Em] [D]  
 
 E|---------19--------------19-----|---------19--------------19------|
 B|--------------------------------|---------------------------------|
 G|-----19------19------19------19-|-----19------19------19----------|
 D|--------------------------------|-16--------------16--------------|
 A|-17-----------------------------|-----------------------------19--|
 E|-----------------15-------------|---------------------------------|

[G] [Em] [F#]  
 
 E|---------19--------------19------|---------21--------------21------|
 B|---------------------------------|-------------19--------------19--|
 G|-----19------19------19------19--|-18--21----------21--18----------|
 D|---------------------------------|---------------------------------|
 A|-17------------------------------|---------------------------------|
 E|-----------------15--------------|---------------------------------|

[G]  
 
 E|---------21--------------21------|-19--------------19--------------|-19--------------19---------|
 B|-------------19--------------19--|-----19------19------19------19--|-----19------19------19-----|
 G|-21--18----------21--18----------|---------19--------------19------|---------19--------------19-|
 D|---------------------------------|---------------------------------|----------------------------|
 A|---------------------------------|---------------------------------|----------------------------|
 E|---------------------------------|---------------------------------|----------------------------|

[A] [D] [F#m]  
 
 E|-----------------|------------------|------12------------|--------|-------------|
 B|-----------------|------------------|----------10--------|--------|-------------|
 G|-18--------------|------------------|-7------------------|--------|-------------|
 D|-----------------|------------------|--------------------|--------|-11----9-----|
 A|----------0----0-|-0-----0---0------|--------------------|--------|-------------|
 E|-----------------|------------------|--------------------|--------|-------------|

[Em] [B] [A]  
 
 E|--------|-------------------7----|--------------------|-----------------|
 B|--------|-8---7----8---7---------|-------7------------|-7---------------|
 G|--------|-9----------------------|-----------9---8----|-----9---6-------|
 D|-7------|------------------------|--------------------|-------------7---|
 A|--------|------------------------|--------------------|-----------------|
 E|--------|------------------------|--------------------|-----------------|

[D] [F#m] [Em]  
 
 E|------12------------|--------|-------------|--------|-------------------7----|
 B|----------10--------|--------|-------------|--------|-8---7----8---7---------|
 G|-7------------------|--------|-------------|--------|-9----------------------|
 D|--------------------|--------|-11----9-----|-7------|------------------------|
 A|--------------------|--------|-------------|--------|------------------------|
 E|--------------------|--------|-------------|--------|------------------------|

[B] [A] [C#m]  
 
 E|--------------------|-----------------|------21--------21------|
 B|-------7------------|-19--17----------|------------------------|
 G|-----------9---8----|---------19--18--|----------21--------21--|
 D|--------------------|-----------------|------------------------|
 A|--------------------|-----------------|------------------------|
 E|--------------------|-----------------|------------------------|

[F#m] [C#m] [C#] [F#m]  
 
 E|------21--------21------|------21--------21------|-------------|
 B|------------------------|------------------------|-------------|
 G|----------21--------21--|----------21--------21--|-22----21----|
 D|------------------------|------------------------|-------------|
 A|------------------------|------------------------|-------------|
 E|------------------------|------------------------|-------------|

[E] [A] [F#m]  
 
 E|---------21--------------21------|---------21--------------21------|
 B|---------------------------------|---------------------------------|
 G|-----21------21------21----------|-----21------21------21------21--|
 D|-18--------------18--------------|-----------------19--------------|
 A|-----------------------------21--|-19------------------------------|
 E|---------------------------------|---------------------------------|

[E] [A] [F#m]  
 
 E|---------21--------------21-----|---------21--------------21------|
 B|--------------------------------|---------------------------------|
 G|-----21------21------21---------|-----21------21------21------21--|
 D|-18--------------18-------------|-----------------19--------------|
 A|-----------------------------21-|-19------------------------------|
 E|--------------------------------|---------------------------------|

[G#]  
 
 E|---------11--------------11------|---------11--------------11-----|
 B|-----9-------9---------------9---|-------------9---------------9--|
 G|-11--------------11--8-----------|-11--8-----------11--8----------|
 D|---------------------------------|--------------------------------|
 A|---------------------------------|--------------------------------|
 E|---------------------------------|--------------------------------|

[A]  
 
 E|-9---------------9---------------|-9---------------9---------------|--------|
 B|-----9---------------9-----------|-----9---------------9-----------|--------|
 G|---------9---------------9-------|---------9---------------9-------|--------|
 D|-------------11--------------11--|-------------11--------------11--|--------|
 A|---------------------------------|---------------------------------|--------|
 E|---------------------------------|---------------------------------|--------|


Important: The song above is NOT stored on the Chordie server. The original song is hosted at www.guitaretab.com. Chordie works as a search engine and provides on-the-fly formatting. Chordie does not index songs against artists'/composers' will. To remove this song please click here.

Text color:
Chord color:
Chord grids: 
Font size:    
Page size: 

A B Bm C C# C#m D Dm E Em F# F#m G G#
Rate #1 of 1 versions

Jango Player

Login - add to songbook

SHARE PAGE  



You need to log in to post comments