Guitar Tabs, Chords and Lyrics
Server problems seems to be fixed. Chordie has been experiencing problems with songs disappearing. These issues now seems to be fixed, but still verifying the fix. If you find anything strange, please email admin@chordie.com.


Alive  X JAPAN

Gtr I (E A D G B E) - 'Guitar 1'
Gtr II (Eb Ab Db Gb Bb Eb) - 'Guitar 2'
Gtr III (E A D G B E) - 'Guitar 3'
Q=75
[4/4] Gtr I
W W W W
 
 |----------|----------|----------|------|
 |----------|----------|----------|------|
 |----------|----------|----------|------|
 |----------|----------|----------|------|
 |----------|----------|----------|------|
 |----------|----------|----------|------|

Q=82 Q=75
W W [2/4] W [4/4] W W
 
 |----------|----------|----------|----------|------|
 |----------|----------|----------|----------|------|
 |----------|----------|----------|----------|------|
 |----------|----------|----------|----------|------|
 |----------|----------|----------|----------|------|
 |----------|----------|----------|----------|------|

Q=37 Q=69
W W W W
 
 |----------|----------|----------|------|
 |----------|----------|----------|------|
 |----------|----------|----------|------|
 |----------|----------|----------|------|
 |----------|----------|----------|------|
 |----------|----------|----------|------|

W H Q E S S H +Q. E Q. S S Q. S S
 
 |----------|-----------6-4-|-6----(6)---6-|-6----4-2-1----2-1--|
 |----------|---------------|--------------|--------------------|
 |----------|---------------|--------------|--------------------|
 |----------|---------------|--------------|--------------------|
 |----------|---------------|--------------|--------------------|
 |----------|---------------|--------------|--------------------|

|
| Gtr II
| W H Q E S S H +Q. E Q. S S Q. S S
 
 |----------|-----------3-2-|-3----(3)---3-|-3----2-------------|
 |----------|---------------|--------------|--------5-3----5-3--|
 |----------|---------------|--------------|--------------------|
 |----------|---------------|--------------|--------------------|
 |----------|---------------|--------------|--------------------|
 |----------|---------------|--------------|--------------------|

Q. S S Q. E Q Q Q E E H +Q. E Q. E Q. S S
 
 |-2---------------|--------------|--------------13-|-13----14-14----13-14-|
 |------4-6-7----7-|-6--7--9--7-9-|-11----(11)------|----------------------|
 |-----------------|--------------|-----------------|----------------------|
 |-----------------|--------------|-----------------|----------------------|
 |-----------------|--------------|-----------------|----------------------|
 |-----------------|--------------|-----------------|----------------------|

|
| Q. S S Q. E Q Q Q E E H +Q. E Q. E Q. S S
 
 |-----------------|--------------|--------------11-|-11----12-12----11-12-|
 |-5------3-5----5-|-4--5--7--5-7-|--8-----(8)------|----------------------|
 |------5----------|--------------|-----------------|----------------------|
 |-----------------|--------------|-----------------|----------------------|
 |-----------------|--------------|-----------------|----------------------|
 |-----------------|--------------|-----------------|----------------------|

H E. S +E E W W W
 
 |-16-------------------|-----------|----------|------|
 |-------18--19-(19)-18-|-19--------|----------|------|
 |----------------------|-----------|----------|------|
 |----------------------|-----------|----------|------|
 |----------------------|-----------|----------|------|
 |----------------------|-----------|----------|------|

|
| H E. S +E E W W W
 
 |-14-------------------|-----------|----------|------|
 |-------16--17-(17)-16-|-17--------|----------|------|
 |----------------------|-----------|----------|------|
 |----------------------|-----------|----------|------|
 |----------------------|-----------|----------|------|
 |----------------------|-----------|----------|------|

W W W W
 
 |----------|----------|----------|------|
 |----------|----------|----------|------|
 |----------|----------|----------|------|
 |----------|----------|----------|------|
 |----------|----------|----------|------|
 |----------|----------|----------|------|

W W W W
 
 |----------|----------|----------|------|
 |----------|----------|----------|------|
 |----------|----------|----------|------|
 |----------|----------|----------|------|
 |----------|----------|----------|------|
 |----------|----------|----------|------|

Q=67 Q=81
W W [1/4] W [4/4] Q E S S Q +S S S S
 
 |----------|----------|----------|-------------------------------------|
 |----------|----------|----------|-------------------------------------|
 |----------|----------|----------|-------------------------------------|
 |----------|----------|----------|-------------------------------------|
 |----------|----------|----------|-----------21-20-21-----(21)---23-21-|
 |----------|----------|----------|-------------------------------------|

|
| Gtr II
| W W W E S S S S S S E S S S S S S
 
 |----------|----------|----------|-------------------------------------|
 |----------|----------|----------|-------------------------------------|
 |----------|----------|----------|-------------------------------------|
 |----------|----------|----------|-------------------------------------|
 |----------|----------|----------|-2-----2----------2-------2----------|
 |----------|----------|----------|-0-0-0-0-0--0--0--0-0-0---0--0--0--0-|

|
| Gtr III
| W W W Q E S S Q +S S S S
 
 |----------|----------|----------|------------6--4--6------(6)----7--6-|
 |----------|----------|----------|-------------------------------------|
 |----------|----------|----------|-------------------------------------|
 |----------|----------|----------|-------------------------------------|
 |----------|----------|----------|-------------------------------------|
 |----------|----------|----------|-------------------------------------|

Q +S S S S H
 
 |-------------------------------|
 |-------------------------------|
 |-------------------------------|
 |---------------20-18-18--------|
 |-23-----(23)-------------------|
 |-------------------------------|

|
| E S S S S S S E S S Q
 
 |-------------------------------|
 |-------------------------------|
 |----------------------------4--|
 |----------------------------2--|
 |--2-------2-----------2--------|
 |--0-0-0---0--0--0--0--0-0-0----|

|
| Q +S S S S H
 
 |--7------(7)---11--9--9--------|
 |-------------------------------|
 |-------------------------------|
 |-------------------------------|
 |-------------------------------|
 |-------------------------------|

+Q E S S Q +S S S S Q +S S S S H
 
 |----------------------------------------|---------------------------|
 |----------------------------------------|---------------------------|
 |----------------------------------------|---------------------------|
 |-(18)---------16-15-16-----(16)---18-16-|-18-----(18)---20-18-20----|
 |----------------------------------------|---------------------------|
 |----------------------------------------|---------------------------|

|
| E S S S S S S E S S S S S S E S S S S S S H
 
 |----------------------------------------|---------------------------|
 |----------------------------------------|---------------------------|
 |----------------------------------------|----------------------4----|
 |----------------------------------------|----------------------2----|
 |---2------2----------2-------2----------|--2-------2----------------|
 |---0--0-0-0-0--0--0--0-0-0---0--0--0--0-|--0-0-0---0--0--0--0-------|

|
| +Q E S S Q +S S S S Q +S S S S H
 
 |--(9)-----------------------------------|---------------11--9-11----|
 |--------------11--9-11-----(11)---12-11-|-12-----(12)---------------|
 |----------------------------------------|---------------------------|
 |----------------------------------------|---------------------------|
 |----------------------------------------|---------------------------|
 |----------------------------------------|---------------------------|

Gtr II
W W W H S S S S S S S S
 
 |-----------|-----------|-----------|----------------------|
 |-----------|-----------|-----------|----------------------|
 |-----------|-----------|-----------|----------------------|
 |-----------|-----------|-----------|------0---------------|
 |-----------|-----------|-----------|--------------0-2-3-5-|
 |-----------|-----------|-----------|--------0-2-3---------|

|
| Gtr III
| W W W H H
 
 |-----------|-----------|-----------|-6--------------------|
 |--9--------|-11--------|-----------|-6--------------------|
 |-10--------|-11--------|-10--------|-7--------------------|
 |-10--------|-13--------|-11--------|-8--------------------|
 |-11--------|-14--------|-11--------|-8--------------------|
 |--9--------|-----------|--9--------|-6--------------------|

E S S Q S S E E E E S S Q S S E E E E S S Q S S E E E
 
 |---------------------|---------------------|---------------------|
 |---------------------|---------------------|---------------------|
 |-9-----9-------------|--7-----7------------|-9-----9-------------|
 |-9-----9-------------|--7-----7----------7-|-9-----9-------------|
 |-7-----7--7-9-10-9-7-|----5-5-5--5-7-9-7-7-|-7-----7--7-9-10-9-7-|
 |---0-0---------------|-10------------------|---0-0---------------|

Gtr I
W W H E E E E
 
 |---------------------|-----------------------|------------------|
 |---------------------|-----------------------|------------------|
 |---------------------|-----------------------|------------------|
 |---------------------|-----------------------|---------------20-|
 |---------------------|-----------------------|------------21----|
 |---------------------|-----------------------|---------21-------|

|
| Gtr II
| E S S Q S S E E E H S S S S S S S S H. Q
 
 |---------------------|-----------------------|------------------|
 |---------------------|-----------------------|------------------|
 |--7-----7------------|-----------------------|-4----------------|
 |--7-----7----------7-|-10--------------------|-4----------------|
 |----5-5-5--5-7-9-7-7-|-10------7-5-3-5-3-2-0-|-2----------------|
 |-10------------------|--8--------------------|------------------|

Q Q E E E E Q H E S S
 
 |--------------------|-------------------|
 |--------------------|-18--18------18-19-|
 |-18--18----------18-|-------------------|
 |--------------20----|-------------------|
 |-----------19-------|-------------------|
 |--------------------|-------------------|

|
| W W
 
 |--------------------|-------------------|
 |--5-----------------|-------------------|
 |--4-----------------|--5----------------|
 |--2-----------------|--5----------------|
 |--------------------|--3----------------|
 |--------------------|-------------------|

|
| Gtr III
| H E E E E Q H E S S
 
 |------------------6-|--9---9-------9-11-|
 |---------------7----|-------------------|
 |------------6-------|-------------------|
 |--------------------|-------------------|
 |--------------------|-------------------|
 |--------------------|-------------------|

S S S S S S S S S S S S S S S S
 
 |-------------------------------------------------|
 |-21-19-18-19-18-16-15-16-18-19-21-23-21-19-18-19-|
 |-------------------------------------------------|
 |-------------------------------------------------|
 |-------------------------------------------------|
 |-------------------------------------------------|

|
| H H
 
 |-------------------------------------------------|
 |--3----------------------------------------------|
 |--2-----------------------4----------------------|
 |--0-----------------------4----------------------|
 |--------------------------2----------------------|
 |-------------------------------------------------|

|
| H H
 
 |-11----------------------------------------------|
 |-------------------------11----------------------|
 |-------------------------------------------------|
 |-------------------------------------------------|
 |-------------------------------------------------|
 |-------------------------------------------------|

Q Q E E E E Q Q E E E E Q H E E
 
 |-----------------------------------|--------------------|-13--13----13-14-|
 |-21--19--18------------------------|-14--14----------14-|-----------------|
 |-----------------------------15----|--------------15----|-----------------|
 |----------------------16-----------|-----------14-------|-----------------|
 |---------------16------------------|--------------------|-----------------|
 |-----------------------------------|--------------------|-----------------|

|
| H H W W
 
 |-----------------------------------|--------------------|-----------------|
 |----------3------------------------|--5-----------------|-----------------|
 |--5-------2------------------------|--4-----------------|--5--------------|
 |--5-------0------------------------|--2-----------------|--5--------------|
 |--3--------------------------------|--------------------|--3--------------|
 |-----------------------------------|--------------------|-----------------|

|
| H S S S S +S S S S Q Q E E E E Q H E E
 
 |-----------------------------------|------------------6-|--9---9-----9-11-|
 |-11-------------9-11-(11)----------|---------------7----|-----------------|
 |---------10-11------------11-10-11-|-10--10-----8-------|-----------------|
 |-----------------------------------|--------------------|-----------------|
 |-----------------------------------|--------------------|-----------------|
 |-----------------------------------|--------------------|-----------------|

S S S S S S S S S S S S S S S S
 
 |-16-14-13-14-13-11-10-11-13-14-16-18-16-14-13-14-|
 |-------------------------------------------------|
 |-------------------------------------------------|
 |-------------------------------------------------|
 |-------------------------------------------------|
 |-------------------------------------------------|

|
| H H
 
 |-------------------------------------------------|
 |--1----------------------------------------------|
 |--0-----------------------4----------------------|
 |--2-----------------------4----------------------|
 |--------------------------2----------------------|
 |-------------------------------------------------|

|
| S S S S S S S S S S S S S S S S
 
 |-13-11--9-11--9-11-13-11--9-11-13-14-13-14-16-18-|
 |-------------------------------------------------|
 |-------------------------------------------------|
 |-------------------------------------------------|
 |-------------------------------------------------|
 |-------------------------------------------------|

Q Q S S S S S S S S
 
 |-16--14--------------------------|
 |------------------------------18-|
 |---------------------------20----|
 |---------15-16-18-20-21-23-------|
 |---------------------------------|
 |---------------------------------|

|
| H H
 
 |---------------------------------|
 |----------3----------------------|
 |--5-------2----------------------|
 |--5-------0----------------------|
 |--3------------------------------|
 |---------------------------------|

|
| Q Q S S S S S S S S
 
 |-19--18--------------------------|
 |------------------------18-19-21-|
 |---------------------20----------|
 |---------18-20-21-23-------------|
 |---------------------------------|
 |---------------------------------|

W
 
 |-18------------------------------------------|
 |---------------------------------------------|
 |---------------------------------------------|
 |---------------------------------------------|
 |---------------------------------------------|
 |---------------------------------------------|

|
| E S S Q +H
 
 |---------------------------------------------|
 |--5------5----------(5)----------------------|
 |--4------4----------(4)----------------------|
 |--2------2----------(2)----------------------|
 |---------------------------------------------|
 |----0-0--------------------------------------|

|
| Q S S S S S S S S S S S S
 
 |-----------16-----------------------------11-|
 |-19-----18-19----14-----------------11-12-14-|
 |--------------15-16-----13----10-11-13-------|
 |--------------------15--16-11-13-------------|
 |---------------------------------------------|
 |---------------------------------------------|

W W
 
 |---------------------------|-------------------------------------|
 |---------------------------|-------------------------------------|
 |---------------------------|-------------------------------------|
 |---------------------------|-------------------------------------|
 |---------------------------|-------------------------------------|
 |---------------------------|-------------------------------------|

|
| W E E Q +H
 
 |---------------------------|-------------------------------------|
 |-3-------------------------|-------------------------------------|
 |-2-------------------------|--5----5----------(5)----------------|
 |-0-------------------------|--5----5----------(5)----------------|
 |---------------------------|--3----3----------(3)----------------|
 |---------------------------|-------------------------------------|

|
| Q +S S S S Q. S S Q S S S S E. S S S S S
 
 |-9--(9)---16---16----14-13-|-14---13-14-------------------11-10--|
 |--------9------------------|------------14--------9-------14-----|
 |---------------------------|---------------13-11----10-11--------|
 |---------------------------|-------------------------------------|
 |---------------------------|-------------------------------------|
 |---------------------------|-------------------------------------|

Gtr II
H. S S S S
 
 |------------------------------------|
 |------------------------------------|
 |--4-------------------------5-6-7-8-|
 |--4-------------------------5-6-7-8-|
 |--2-------------------------3-4-5-6-|
 |------------------------------------|

|
| Gtr III
| E S S S S S S E. S E S S
 
 |-11--13-11-10-10--------------------|
 |-----------------11-------6---------|
 |--------------------10-8----7---8-7-|
 |------------------------------------|
 |------------------------------------|
 |------------------------------------|

E S S Q +H
 
 |----------------------------------------------|
 |----------------------------------------------|
 |-9--------9----------(9)----------------------|
 |-9--------9----------(9)----------------------|
 |-7--------7----------(7)----------------------|
 |-----0-0--------------------------------------|

|
| S S S S S S S S S S S S S S S S
 
 |---6------------------------------------------|
 |-----7-9--------------------------14-12-------|
 |-8-------10-11-----------------15----15-13-11-|
 |---------------13-15-----15-16-18----------15-|
 |---------------------17--18-------------------|
 |----------------------------------------------|

W E E Q +H
 
 |-------------------------------|---------------------------------------|
 |-------------------------------|---------------------------------------|
 |--7----------------------------|---------------------------------------|
 |--7----------------------------|-10-------10-------(10)----------------|
 |-------------------------------|-10-------10-------(10)----------------|
 |-10----------------------------|--8--------8--------(8)----------------|

|
| Q E S S +E. S E S S E S S E S S E S S E S S
 
 |--------13------------------13-|-14----14-16----16--18-----18-19-18-16-|
 |-----------14-(14)-14-14-14-16-|----16-18----18-19------19-21----------|
 |-----11------------------------|---------------------------------------|
 |-11----------------------------|---------------------------------------|
 |-------------------------------|---------------------------------------|
 |-------------------------------|---------------------------------------|

W
 
 |-------------------------------------------------|
 |-------------------------------------------------|
 |-------------------------------------------------|
 |--9----------------------------------------------|
 |--9----------------------------------------------|
 |--7----------------------------------------------|

|
| S S S S S S S S S S S S S S S S
 
 |-18-19-------------------------------18-19-------|
 |-------21-23----------------18-19-19-21-23-21-18-|
 |-------------22-23-22-23-20-20-20-22-------23-20-|
 |-------------------------24----------------------|
 |-------------------------------------------------|
 |-------------------------------------------------|

H S S S S S S S S H S S S S S S S S
 
 |-----------------------------|--------------------------|
 |-----------------------------|--------------------------|
 |-----------------------------|--------------------------|
 |-10--------------------------|--------------------------|
 |-10-------9-10-12-14-12-10-9-|----------------0-2-0-----|
 |--8--------------------------|-11----11-0-2-3-------3---|

|
| H. Q W
 
 |-19--------------------------|--------------------------|
 |-----------------------------|--------------------------|
 |-----------------------------|--------------------------|
 |-----------------------------|--------------------------|
 |-----------------------------|--------------------------|
 |-----------------------------|--------------------------|

H S S S S S S S S H Q E E E S S E S S S S S S E S S
 
 |----------------------|-------------|---------------------------|
 |----------------------|-------------|---------------------------|
 |-5--------------------|-------------|---------------------------|
 |-5------4-5-7-9-7-5-4-|-------------|-7-----7-------7-----7-----|
 |-3--------------------|-6-----------|-7-----7-------7-----7-----|
 |----------------------|---------8-7-|-5-5-5-5-5-5-5-5-5-5-5-5-5-|

E S S E S S S S S S E S S E S S E S S S S S S E S S
 
 |---------------------------|----------------------------|
 |---------------------------|----------------------------|
 |---------------------------|----------------------------|
 |-5-----5-------5-----5-----|-3-----3-------3-----3------|
 |-5-----5-------5-----5-----|-3-----3-------3-----3------|
 |-3-3-3-3-3-3-3-3-3-3-3-3-3-|-1-1-1-1-1-1-1-1-1-1-1-1-1--|

E S S E S S S S S S E S S E S S E S S S S S S E S S Q Q Q E E
 
 |---------------------------|---------------------------|---------------|
 |---------------------------|---------------------------|------------3--|
 |---------------------------|-2-----2-------2-----2-----|----2--4--5----|
 |-2-----2-------2-----2-----|-2-----2-------2-----2-----|-5----------0--|
 |-2-----2-------2-----2-----|-0-0-0-0-0-0-0-0-0-0-0-0-0-|-------2--3----|
 |-0-0-0-0-0-0-0-0-0-0-0-0-0-|---------------------------|-3--5----------|

W W W W
 
 |----------|----------|----------|------|
 |----------|-3--------|----------|------|
 |-5--------|-2--------|----------|------|
 |-5--------|-0--------|----------|------|
 |-3--------|----------|----------|------|
 |----------|----------|----------|------|

Gtr I
W W W W
 
 |----------|----------|----------|------|
 |----------|----------|----------|------|
 |----------|----------|----------|------|
 |----------|----------|----------|------|
 |----------|----------|----------|------|
 |----------|----------|----------|------|

W W W W
 
 |----------|----------|----------|------|
 |----------|----------|----------|------|
 |----------|----------|----------|------|
 |----------|----------|----------|------|
 |----------|----------|----------|------|
 |----------|----------|----------|------|

W H Q S S S S S S S S S S S S S S S S S S S S
 
 |----------|-----------------|----------------------------------|
 |----------|-----------------|----------------------------------|
 |----------|-----------------|----------------------------------|
 |----------|---------3-1---3-|-4-3---4-6-4---6-8-6---8-9-8---9--|
 |----------|-----------------|----------------------------------|
 |----------|-----------------|----------------------------------|

H Q E E Q. E H E E E E E S S E E Q. E Q Q
 
 |-------------|----------------------|---------------------|--------------|
 |------6--7-6-|-4--------3-2---------|---------------------|-----------4--|
 |-7-----------|----------------------|---------------------|-1----3-4-----|
 |-------------|----------------------|-------4-------------|-1---------1--|
 |-------------|----------------------|---4-----4---------1-|------1-2-----|
 |-------------|----------------------|-2---------3-3-3-3---|-4------------|

|
| Gtr II
| W E S S E E E S S E E E S S E E E S S E E Q. E H
 
 |-------------|----------------------|---------------------|--------------|
 |-------------|-5------5---3-----3---|---------------------|--------------|
 |-------------|-4------4---2-----2---|---------------------|-2----4-5-----|
 |-------------|-2--2-2-2-2-0-0-0-0-0-|-5-----5---6---------|-2------------|
 |-------------|----------------------|-5-----5---6-------2-|-0----2-3-----|
 |-------------|----------------------|-3-3-3-3-3-4-4-4-4---|--------------|

Q Q Q E E E E E E E E E E E E E E E S S E E Q. E Q Q
 
 |--------------|---------------------|---------------------|--------------|
 |-3--4--6--7-6-|-------4-------------|---------------------|-----------4--|
 |--------------|---3-----3-------6---|---------------------|-1----3-4-----|
 |-0--1--3--4-3-|-1-----------6-----6-|-------4-------------|-1---------1--|
 |--------------|-----------4---------|---4-----4---------1-|------1-2-----|
 |--------------|---------------------|-2---------3-3-3-3---|-4------------|

|
| W E S S E E E S S E E E S S E E E S S E E Q. E H
 
 |--------------|---------------------|---------------------|--------------|
 |--------------|-5-----5---3-----3---|---------------------|--------------|
 |-4------------|-4-----4---2-----2---|---------------------|-2----4-5-----|
 |--------------|-2-2-2-2-2-0-0-0-0-0-|-5-----5---6---------|-2------------|
 |--------------|---------------------|-5-----5---6-------2-|-0----2-3-----|
 |-7------------|---------------------|-3-3-3-3-3-4-4-4-4---|--------------|

Q Q Q E E E E E E E E E E Q S S E Q E E E E E E E E E E
 
 |---------------|-----------------|-----------------|------------------|
 |-3---4--6------|-----4-------6---|-----------------|-----4-------6----|
 |---------------|---4---4---6---6-|-----------------|---4---4---6---6--|
 |-0---1--3----0-|-4-------6-------|-8--8-6-4-3------|-4-------6--------|
 |-----------2---|-----------------|-------------2-4-|------------------|
 |---------------|-----------------|-----------------|------------------|

|
| H. E E E E E E E E E E Q S S E Q E E E E E E E E E E
 
 |---------------|-----------------|-----------------|-----0-------2----|
 |---------------|-----5-------7---|-----------------|---1---1---3---3--|
 |-4-------------|---5---5---7---7-|-----------------|-0-------2--------|
 |---------------|-5-------7-------|-5--5-4-2-1------|------------------|
 |---------------|-----------------|-------------0-2-|------------------|
 |-7---------5-7-|-----------------|-----------------|------------------|

Q Q Q E S S E E E E E E E E Q S S E Q E E E E E E E E E E
 
 |----------------|-----------------|-----------------|-----------------|
 |----------------|-----4-------6---|-----------------|-----4-------6---|
 |----------------|---4---4---6---6-|-----------------|---4---4---6---6-|
 |-4--6--8--9-8-6-|-4-------6-------|-8--8-6-4-3------|-4-------6-------|
 |----------------|-----------------|-------------2-4-|-----------------|
 |----------------|-----------------|-----------------|-----------------|

|
| Q Q Q E S S E E E E E E E E Q S S E Q E E E E E E E E E E
 
 |----------------|-----------------|-----------------|-----0-------2---|
 |----------------|-----5-------7---|-----------------|---1---1---3---3-|
 |----------------|---5---5---7---7-|-----------------|-0-------2-------|
 |-2--4--5--7-5-4-|-5-------7-------|-5--5-4-2-1------|-----------------|
 |----------------|-----------------|-------------0-2-|-----------------|
 |----------------|-----------------|-----------------|-----------------|

S S S S S S S S S S S S S S S S
 
 |-------------------------------------------------|
 |--6-----7-----7--6-----6-----7--6-----7-----6----|
 |-------------------------------------------------|
 |-----8-----8--------8-----8--------8-----8-----8-|
 |-------------------------------------------------|
 |-------------------------------------------------|

|
| W
 
 |-------------------------------------------------|
 |-------------------------------------------------|
 |-------------------------------------------------|
 |--2----------------------------------------------|
 |-------------------------------------------------|
 |-------------------------------------------------|

|
| Gtr III
| S S S S S S S S S S S S S S S S
 
 |-------------------------------------------------|
 |-------------------------------------------------|
 |-------------------------------------------------|
 |-18----20----20-18----18----20-18----20----18----|
 |----18----18-------18----18-------18----18----18-|
 |-------------------------------------------------|

S S S S S S S S S S S S S S S S
 
 |-------------------------------------------------|
 |--------6-----6--7--6-----6-----7-----7--6-------|
 |--7-----------------------------------------7----|
 |-----8-----8-----------8-----8-----8-----------8-|
 |-------------------------------------------------|
 |-------------------------------------------------|

|
| W
 
 |-------------------------------------------------|
 |-------------------------------------------------|
 |-------------------------------------------------|
 |--1----------------------------------------------|
 |-------------------------------------------------|
 |-------------------------------------------------|

|
| S S S S S S S S S S S S S S S S
 
 |-------------------------------------------------|
 |-------------------------------------------------|
 |-------------------------------15----15-13-11----|
 |-16----18----18-20-18----18-------------------12-|
 |----17----17----------17----17----17-------------|
 |-------------------------------------------------|

S S S S S S S S S S S S S S S S S S S S S S S S S S S S S S S S
 
 |---------------------6-4-6-4---1-----|-1---2---2-1---1---2-1---2---1---|
 |------6---------7------------3-------|---------------------------------|
 |---------------------------------1-3-|---3---3-----3---3-----3---3---3-|
 |----8----8----8----8-----------------|---------------------------------|
 |-------------------------------------|---------------------------------|
 |-------------------------------------|---------------------------------|

|
| H H W
 
 |-------------------------------------|---------------------------------|
 |-------------------------------------|---------------------------------|
 |-------------------------------------|---------------------------------|
 |-0-------------------1---------------|-2-------------------------------|
 |-------------------------------------|---------------------------------|
 |-------------------------------------|---------------------------------|

|
| S S S S S S S S H S S S S S S S S S S S S S S S S
 
 |-------------------------------------|-----6---6-4---4---6-4---6---4---|
 |------9---------9--------------------|-9-----4-----4---4-----4---4---4-|
 |-------------------------------------|---8-----------------------------|
 |---11---11---11---11-----------------|---------------------------------|
 |-------------------------------------|---------------------------------|
 |-------------------------------------|---------------------------------|

S S S S S S S S S S S S S S S S S S S S S S S S S S S S S S S S
 
 |-1---2---2-1---1---2-1---2---1---|-----1---1-2-1---1---2---2-1-----|
 |---------------------------------|-3---------------------------3---|
 |---3---3-----3---3-----3---3---3-|---3---3-------3---3---3-------3-|
 |---------------------------------|---------------------------------|
 |---------------------------------|---------------------------------|
 |---------------------------------|---------------------------------|

|
| W W
 
 |---------------------------------|---------------------------------|
 |---------------------------------|---------------------------------|
 |---------------------------------|---------------------------------|
 |-2-------------------------------|-1-------------------------------|
 |---------------------------------|---------------------------------|
 |---------------------------------|---------------------------------|

|
| S S S S S S S S S S S S S S S S S S S S S S S S S S S S S S S S
 
 |-4---6---6-4---4---6-4---6---4---|-2---4---4-6-4---4---6---6-4-2---|
 |---4---4-----4---4-----4---4---4-|---3---3-------3---3-----------3-|
 |---------------------------------|-----------------------7---------|
 |---------------------------------|---------------------------------|
 |---------------------------------|---------------------------------|
 |---------------------------------|---------------------------------|

S S S S S S S S S S S S E E H S S S S Q
 
 |-----1-------2---6-4-6-4-----|----------------------------|
 |-------------------------3---|----------------------------|
 |---3---3---3---3-------------|----------------4-2---------|
 |-----------------------------|--------------------4-5-----|
 |-----------------------------|----------------------------|
 |-----------------------------|----------------------------|

|
| H Q Q E S S E S S E S S E S S
 
 |-----------------------------|----------------------------|
 |-------------------------4---|----------------------------|
 |-----------------------------|----------------------------|
 |-0---------------1-----------|-3-----3-----3--------3-----|
 |-----------------------------|-3-----3-----3--------3-----|
 |-----------------------------|-1-1-1-1-1-1-1----1-1-1-1-1-|

|
| S S S S S S S S H Q E S S Q. S S
 
 |-----4-------4---------------|---------3-2-3----------5-3-|
 |---2---2---2---2-------------|---------3-3-3----------5-5-|
 |-----------------------------|---------4-4-4----------4-4-|
 |-----------------------------|----------------------------|
 |-----------------------------|----------------------------|
 |-----------------------------|----------------------------|

S S S S Q S S S S E E
 
 |-------------------------------|
 |-------------------------------|
 |----5--------------------------|
 |------4-5-7-------9-7------9---|
 |----------------------9-10-----|
 |-------------------------------|

|
| E S S E S S E S S Q
 
 |-------------------------------|
 |-------------------------------|
 |-------------------------5-----|
 |-3--------3-----3--------3-----|
 |-3--------3-----3--------------|
 |-1----1-1-1-1-1-1---1-1--------|

|
| Q. S S H
 
 |-5----------3-2-3--------------|
 |-5----------3-3-3--------------|
 |-4----------4-4-4--------------|
 |-------------------------------|
 |-------------------------------|
 |-------------------------------|

E E Q S S S S Q [2/4] S S S S Q [4/4] Q Q Q S E. W
 
 |----------------------------|----------------|-----------------|------|
 |-8-7---5--------------------|----------------|-----------------|------|
 |----------------4-2---------|----5-----------|-----------------|-8----|
 |--------------------4-5-----|------4-5-5-----|-------------10--|------|
 |----------------------------|----------------|-7--9--10--------|------|
 |----------------------------|----------------|-----------------|------|

|
| E S S E S S E S S E S S E S S E S S Q Q Q S E. W
 
 |----------------------------|----------------|--------------6--|-8----|
 |----------------------------|----------------|-1--4---6--------|------|
 |----------------------------|----------------|-----------------|------|
 |-3-----3-----3--------3-----|-3--------3-----|-----------------|------|
 |-3-----3-----3--------3-----|-3--------3-----|-----------------|------|
 |-1-1-1-1-1-1-1----1-1-1-1-1-|-1----1-1-1-1-1-|-----------------|------|

|
| Q E S S Q. S S Q. S S Q Q H W
 
 |---------3-2-3----------5-3-|-5----------3-2-|-3---------------|------|
 |---------3-3-3----------5-5-|-5----------3-3-|-3---------------|------|
 |---------4-4-4----------4-4-|-4----------4-4-|-4---------------|------|
 |----------------------------|----------------|-----------------|------|
 |----------------------------|----------------|-----------------|------|
 |----------------------------|----------------|-----------------|------|

Q E E Q E E Q S S E Q E E
 
 |----------------------|---------------------|
 |----------------------|---------------------|
 |----------------------|---------------------|
 |----------------------|---------------------|
 |-10-----10-12------12-|-14--14-12-10-9------|
 |------8---------10----|-----------------5-7-|

|
| E E E E E E E E Q S S E Q E E
 
 |----------------------|---------------------|
 |----------------------|---------------------|
 |----------------------|---------------------|
 |------------5---------|--6---6--5--3-2------|
 |--8------4----6-----6-|-----------------4-5-|
 |----9-4----------6----|---------------------|

Q E E Q E E Q Q Q E S S
 
 |-----------------|---------------------|
 |-----------------|---------------------|
 |-----------------|---------------------|
 |-5-----5-7-----7-|-5---7---9--10--9--7-|
 |-----3-------5---|---------------------|
 |-----------------|---------------------|

|
| E E E E E E E E Q Q Q E S S
 
 |-----------------|---------------------|
 |-----------------|---------------------|
 |-----------------|---------------------|
 |-3-------5-------|---------------------|
 |---4---4---6---6-|-8--10--11--13-11-10-|
 |-----4-------6---|---------------------|

Q E E Q E E Q S S E Q E E
 
 |-----------------|-----------------|
 |-----------------|-----------------|
 |-----------------|-----------------|
 |-5-----5-7-----7-|-9--9-7-5-4------|
 |-----3-------5---|-----------------|
 |-----------------|-------------5-7-|

|
| E E E E E E E E Q S S E Q E E
 
 |-----------------|-----------------|
 |-----------------|-----------------|
 |-----------------|-----------------|
 |---------5-------|-6--6-5-3-2------|
 |-8-----4---6---6-|-------------4-5-|
 |---9-4-------6---|-----------------|

|
| Gtr III
| W W
 
 |-----------------|-----------------|
 |-----------------|-----------------|
 |-----------------|-----------------|
 |-----------------|-----------------|
 |-----------------|-----------------|
 |-----------------|-----------------|

Q E E E E E S S Q. S S Q. S S
 
 |-------------------|-------------------------------|
 |-------------------|------------8-7------------7---|
 |-------------------|--9--------------8-----------8-|
 |-5-----5-7-7---7---|-------------------------------|
 |-----3-------5---9-|-------------------------------|
 |-------------------|-------------------------------|

|
| E E E E E E E E E S S E S S E S S E S S
 
 |-------------------|-------------------------------|
 |-------------------|-------------------------------|
 |-------------------|-10------10--------------------|
 |-3-------5---------|-10------10-----10------10-----|
 |---4---4---6---6---|--8--8-8--8-8-8-10------10-----|
 |-----4-------6-----|-----------------8--8-8--8-8-8-|

|
| W Q. S S Q. S S
 
 |-------------------|--3---------7-5------------7-8-|
 |-------------------|-----------------7-------------|
 |-------------------|-------------------------------|
 |-------------------|-------------------------------|
 |-------------------|-------------------------------|
 |-------------------|-------------------------------|

H Q. E Q. S S Q Q Q Q Q. E
 
 |----------------------7-|-7----12-10-12--14--|-14--12--10------|
 |-8----------------------|--------------------|-----------------|
 |-------------9----------|--------------------|---------------8-|
 |------------------------|--------------------|-----------------|
 |------------------------|--------------------|-----------------|
 |------------------------|--------------------|-----------------|

|
| E S S E S S E S S E E Q. E H W
 
 |------------------------|--------------------|-----------------|
 |------------------------|--------------------|-----------------|
 |------------------------|--------------------|-----------------|
 |-6-----6-----3------3---|--------------------|-----------------|
 |-6-----6-----3------3-3-|-1-----3-----4------|--3--------------|
 |-4-4-4-4-4-4-1--1-1-1---|--------------------|-----------------|

|
| H Q. E Q. S S Q Q Q Q Q. E
 
 |-7----------------------|-------8--7--8--11--|-11--12--12------|
 |-------------9--------9-|-9------------------|-----------------|
 |------------------------|--------------------|-----------------|
 |------------------------|--------------------|-----------------|
 |------------------------|--------------------|-----------------|
 |------------------------|--------------------|-----------------|

Q. S S Q. S S H Q. E Q. S S Q Q
 
 |---------------------------|----------------------7-|-7----12-10-12--15---|
 |----------8-7----------7---|-8----------------------|---------------------|
 |-9------------8----------8-|-------------9----------|---------------------|
 |---------------------------|------------------------|---------------------|
 |---------------------------|------------------------|---------------------|
 |---------------------------|------------------------|---------------------|

|
| E S S E S S E S S E S S E S S E S S E S S E E Q. E H
 
 |---------------------------|------------------------|---------------------|
 |-6------6------------------|------------------------|---------------------|
 |-5------5-----5------5-----|------------------------|---------------------|
 |-3--3-3-3-3-3-5------5-----|-6-----6-----3------3---|---------------------|
 |--------------3--3-3-3-3-3-|-6-----6-----3------3-3-|-1-----3-----4-------|
 |---------------------------|-4-4-4-4-4-4-1--1-1-1---|---------------------|

Q Q Q E E Q E E Q E E
 
 |-14---15--15--------|----------------------|
 |--------------------|----------------------|
 |--------------------|----------------------|
 |--------------------|----------------------|
 |--------------14-12-|-10-----10-12------12-|
 |--------------------|------8---------10----|

|
| H. E E E E E E E E E E
 
 |--------------------|----------------------|
 |--------------------|----------------------|
 |--------------------|----------------------|
 |---------------3--5-|--3---------5---------|
 |--3-----------------|----4----4----6-----6-|
 |--------------------|------4----------6----|

Q S S E Q E E Q E E Q E E
 
 |---------------------|------------------|
 |---------------------|------------------|
 |---------------------|------------------|
 |---------------------|-5-----5-7-----7--|
 |-14--14-12-10-9------|-----3-------5----|
 |-----------------5-7-|------------------|

|
| Q S S E Q E E E E E E E E E E
 
 |---------------------|------------------|
 |---------------------|------------------|
 |---------------------|------------------|
 |--6---6--5--3-2------|-3-------5--------|
 |-----------------4-5-|---4---4---6---6--|
 |---------------------|-----4-------6----|

Q=61
Q Q Q E S S Q E E Q E E Q S S E Q E E Q S S S S H
 
 |---------------------|-----------------|-----------------|-----------------|
 |---------------------|-----------------|-----------------|-----------------|
 |---------------------|-----------------|-----------------|------------2----|
 |-5---7---9--10--9--7-|-5-----5-7-----7-|-9--9-7-5-4------|-5----5----------|
 |---------------------|-----3-------5---|-----------------|----3-----3------|
 |---------------------|-----------------|-------------5-7-|-----------------|

|
| Q Q Q E S S E E E E E E E E Q S S E Q E E Q S S S S H
 
 |---------------------|-----------------|-----------------|-----------------|
 |---------------------|-----------------|-----------------|-----------------|
 |---------------------|-----------------|-----------------|-----------------|
 |---------------------|---------5-------|-6--6-5-3-2------|-3----3-----5----|
 |-8--10--11--13-11-10-|-8-----4---6---6-|-------------4-5-|-----------------|
 |---------------------|---9-4-------6---|-----------------|----4-----4------|

Q=88 Q=76
[5/4] [4/4] Gtr III
+H Q Q Q E E E E E E E E
 
 |-----------------|-------------------------|
 |-----------------|----------12-------------|
 |-(2)-------------|-12----12----12----12----|
 |-----------------|----13----------14----14-|
 |-----------------|-------------------------|
 |-----------------|-12----------------------|

[E] [E] [E] [E] [B] [E] [E] [E] [E] [E] [E] [E] [E]  
 
 |-------7------|----------------------|
 |-7---7---7----|--7---7---------------|
 |---8----------|----7---7-11----11----|
 |--------------|-------------13----13-|
 |--------------|----------------------|
 |-7------------|-10-------11----------|

[E] [E] [E] [E] [B] [E] [E] [E] [E] [E] [E] [E] [E]  
 
 |-------------------|-------------------------|
 |----------12-------|----------12-------------|
 |-12----12----12----|-12----12----12----12----|
 |----14-------------|----14----------14----14-|
 |-------------------|-------------------------|
 |-12----------------|-12----------------------|

[E] [E] [E] [E] [B] [E] [E] [E] [E] [E] [E] [E] [E]  
 
 |-------7------|----------------------|
 |-7---7---7----|--7---7---------------|
 |---8----------|----7---7-11----11----|
 |--------------|-------------13----13-|
 |--------------|----------------------|
 |-7------------|-10-------11

Important: The song above is NOT stored on the Chordie server. The original song is hosted at www.guitaretab.com. Chordie works as a search engine and provides on-the-fly formatting. Chordie does not index songs against artists'/composers' will. To remove this song please click here.

Text color:
Chord color:
Chord grids: 
Font size:    
Page size: 

B E
Rate #1 of 3 versions

Jango Player

Login - add to songbook

SHARE PAGE  




You need to log in to post comments