Guitar Tabs, Chords and Lyrics
Server problems seems to be fixed. Chordie has been experiencing problems with songs disappearing. These issues now seems to be fixed, but still verifying the fix. If you find anything strange, please email admin@chordie.com.


Got to Hurry  The Yardbirds

GOT TO HURRY
As recorded by The Yardbirds
(From the 1964 Album ULTIMATE!)
Music by Oscar Rasputin
5 7 7[A] 6 x x 5 [A6sus4]7 7 7 7 x
Gtr I (E A D G B E) - 'Elec. clean'
Gtr II (E A D G B E) - 'Elec. w/slight dist'
Moderately Q=121(8=s8)
[A7]  
[4/4] Gtr I
e E e E e E e E e E e E e E e E e E e E e E e E e E e E e E e E
 
 |-----------------|-----------------|-----------------|-----------------|
 |-----------------|-----------------|-----------------|-----------------|
 |-----------------|-----------------|-----------------|-----------------|
 |-----7-7-5-5-----|-----7-7-5-5-----|-----7-7-5-5-----|-----7-7-5-5-----|
 |-------------7-7-|-------------7-7-|-------------7-7-|-------------7-7-|
 |-5-5-------------|-5-5-------------|-5-5-------------|-5-5-------------|

[D7]e E e E e E e E e E e E e E e E [A7]e E e E e E e E e E e E e E e E
 
 |-----------------|-----------------|-----------------|------------------|
 |-----------------|-----------------|-----------------|------------------|
 |-----7-7-5-5-----|-----7-7-5-5-----|-----------------|------------------|
 |-------------7-7-|-------------7-7-|-----7-7-5-5-----|-----7-7-5-5------|
 |-5-5-------------|-5-5-------------|-------------7-7-|-------------7-7--|
 |-----------------|-----------------|-5-5-------------|-5-5--------------|

[E7]Gtr II[D7]
W W
 
 |-----------------|-----------------|
 |-----------------|-----------------|
 |-----------------|-----------------|
 |-----------------|-----------------|
 |-----------------|-----------------|
 |-----------------|-----------------|

|
| Gtr I
| e E e E e E e E e e e E e E e e
 
 |-----------------|-----------------|
 |-----------------|-----------------|
 |-----9-9-7-7-----|-----7-7-5-5-----|
 |-------------9-9-|-------------7-7-|
 |-7-7-------------|-5-5-------------|
 |-----------------|-----------------|

[A7]  
 
 |----3----|

W H E E E +E E
 
 |-----------------|-----------5--------------||
 |-----------------|--------------------------||
 |-----------------|-------------7b9r(7)---5--||
 |-----------------|--------------------------||
 |-----------------|--------------------------||
 |-----------------|--------------------------||

|
| e e e E e E e E e e e E e E e E
 
 |-----------------|--------------------------||
 |-----------------|--------------------------||
 |-----------------|--------------------------||
 |-----7-7-5-5-----|-----7-7-5-5--------------||
 |-------------7-7-|-------------7-------7----||
 |-5-5-------------|-5-5----------------------||

[A7]  
 
 |-----3-----| |----3----|

+E +E Q E E E +E E +E +E Q E E E +E E
 
 |---------------------5---------------|---------------------5-------------|
 |-------------------------------------|---------------------5-------------|
 |-(5)b5.5==(5)r---------7b8.5r(7)---5-|-(5)b5.5==(5)r---------7b9r(7)---5-|
 |-------------------------------------|-----------------------------------|
 |-------------------------------------|-----------------------------------|
 |-------------------------------------|-----------------------------------|

|
| e E e E e E e E e E e E e E e E
 
 |-------------------------------------|-----------------------------------|
 |-------------------------------------|-----------------------------------|
 |-------------------------------------|-----------------------------------|
 |---------------7-7-5-5---------------|---------------7-7-5-5-------------|
 |-----------------------7---------7---|-----------------------7-------7---|
 |--5--------5-------------------------|--5--------5-----------------------|
 |----3----| |-----3-----|

+E +E Q E E E +E E +E +E Q E E E +E E
 
 |---------------------5-------------|---------------------5---------------|
 |---------------------5-------------|---------------------5---------------|
 |-(5)b5.5==(5)r---------7b9r(7)---5-|-(5)b5.5==(5)r---------7b8.5r(7)---5-|
 |-----------------------------------|-------------------------------------|
 |-----------------------------------|-------------------------------------|
 |-----------------------------------|-------------------------------------|

|
| e E e E e E e E e E e E e E e E
 
 |-----------------------------------|-------------------------------------|
 |-----------------------------------|-------------------------------------|
 |-----------------------------------|-------------------------------------|
 |---------------7-7-5-5-------------|---------------7-7-5-5---------------|
 |-----------------------7-------7---|-----------------------7---------7---|
 |--5--------5-----------------------|--5--------5-------------------------|

[D7] ~~~~~~~~~~~~~~ ~~~~~~~~~~~~~~
 
 |3| |----3----| |3| |----3----|

E Q +Q +E E E +E E E Q +Q +E E E +E E
 
 |-----------------5-------------|-----------------5-------------|
 |-----------------5-------------|-----------------5-------------|
 |-5h7---(7)---(7)---7b9r(7)---5-|-5h7---(7)---(7)---7b9r(7)---5-|
 |-------------------------------|-------------------------------|
 |-------------------------------|-------------------------------|
 |-------------------------------|-------------------------------|

|
| e E e E e E e E e E e E e E e E
 
 |-------------------------------|-------------------------------|
 |-------------------------------|-------------------------------|
 |--------7--7--5--5-------------|--------7--7--5--5-------------|
 |-------------------7-------7---|-------------------7-------7---|
 |-5---5-------------------------|-5---5-------------------------|
 |-------------------------------|-------------------------------|

[A7]  
 
 |----3----| |----3----|

+E +E Q E E E +E E +E +E Q E E E +E E
 
 |---------------------5-------------|---------------------5--------------|
 |---------------------5-------------|---------------------5--------------|
 |-(5)b5.5==(5)r---------7b9r(7)---5-|-(5)b5.5==(5)r---------7b9r(7)---5--|
 |-----------------------------------|------------------------------------|
 |-----------------------------------|------------------------------------|
 |-----------------------------------|------------------------------------|

|
| e E e E e E e E e E e E e E e E
 
 |-----------------------------------|------------------------------------|
 |-----------------------------------|------------------------------------|
 |-----------------------------------|------------------------------------|
 |---------------7-7-5-5-------------|---------------7-7-5-5--------------|
 |-----------------------7-------7---|-----------------------7-------7----|
 |--5--------5-----------------------|--5--------5------------------------|

[E7] [D7] ~~~~~~~~~~~~~~
 
 |----3----| |3| |----3----|

Q Q E E E +E E E Q +Q +E E E +E E
 
 |-------------5-------------|-----------------5-------------|
 |-------------5-------------|-----------------5-------------|
 |-7b9-----------7b9r(7)---5-|-5h7---(7)---(7)---7b9r(7)---5-|
 |---------------------------|-------------------------------|
 |---------------------------|-------------------------------|
 |---------------------------|-------------------------------|

|
| e E e E e E e E e e e E e E e e
 
 |---------------------------|-------------------------------|
 |---------------------------|-------------------------------|
 |-------9-9-7-7-------------|--------7--7--5--5-------------|
 |---------------9-------9---|-------------------7-------7---|
 |-7---7---------------------|-5---5-------------------------|
 |---------------------------|-------------------------------|

[A7]  
 
 |-----3-----| |--3--|

Q Q E E E +E E Q Q Q E E E
 
 |-----------5---------------|-------------5---------||
 |---------------------------|-------------5-5-------||
 |-------------7b8.5r(7)---5-|-----------------------||
 |-7-------------------------|-7---------------------||
 |---------------------------|-----------------------||
 |---------------------------|-----------------------||

|
| e e e E e E e E e e e E e E e E
 
 |---------------------------|-----------------------||
 |---------------------------|-----------------------||
 |---------------------------|-----------------------||
 |-----7-7-5-5---------------|-----7-7-5-5-----------||
 |-------------7---------7---|-------------7---7-----||
 |-5-5-----------------------|-5-5-------------------||

[A7] ~~ ~~
a H Q E E H Q e E
 
 |----------------8b8.5-8b8.5-|--------------10b11.5---|
 |-8s10-----------------------|-10---------------------|
 |----------------------------|------------------------|
 |----------------------------|------------------------|
 |----------------------------|------------------------|
 |----------------------------|------------------------|

|
| e E e E e E e E e E e E e E e E
 
 |----------------------------|------------------------|
 |----------------------------|------------------------|
 |----------------------------|------------------------|
 |--------7-7-5-5-------------|------7-7-5-5-----------|
 |----------------7-----7-----|---------------7------7-|
 |----5-5---------------------|--5-5-------------------|

~~~~~~~~~~~~~
 
 |----3----| |--3---|

H +E E e a E E e E E E E E E E E
 
 |------------------8-8h10---10-|-10b12-8b8.5-----------8b8.5---------|
 |-10-------(10)-10-------------|-------------10-8---10---------8-----|
 |------------------------------|---------------------------------9---|
 |------------------------------|-------------------------------------|
 |------------------------------|-------------------------------------|
 |------------------------------|-------------------------------------|

|
| e E e E e E e E e E e E e E e E
 
 |------------------------------|-------------------------------------|
 |------------------------------|-------------------------------------|
 |------------------------------|-------------------------------------|
 |------7-7---5---5-------------|--------------7---7----5-----5-------|
 |------------------7------7----|-------------------------------7-7---|
 |--5-5-------------------------|--5----5-----------------------------|

[D7]  
 
 |---3---| |------------3------------| |----3-----| |----3----|

a E E S S S S E E E Q Q a +Q a +Q E +E E E +E E
 
 |-----------------------5-----|----------------------------------------------------------------|
 |-------------------5---5-----|-----8pb9==(8)b10---8pb9==(8)b10---8b10r(8)p==5-----------------|
 |-9s7-5-7p5---5-7b8-----------|------------------------------------------------7b9r(7)---5b5.5-|
 |-----------7-----------------|----------------------------------------------------------------|
 |-----------------------------|----------------------------------------------------------------|
 |-----------------------------|----------------------------------------------------------------|

|
| e E e E e E e E e E e E e E e E
 
 |-----------------------------|----------------------------------------------------------------|
 |-----------------------------|----------------------------------------------------------------|
 |-------7---7---5-----5-------|------------------7--------------7-5--------5-------------------|
 |-------------------------7-7-|------------------------------------------------7-------7-------|
 |---5-5-----------------------|-5-5------------------------------------------------------------|
 |-----------------------------|----------------------------------------------------------------|

[A7]  
 
 |--3--| |---3---| |--3--|

Q E E E a Q e E E E E +Q E E E e E
 
 |-----------5--------8---|---8-8b8.5==(8)r-------------------|
 |-------5-----8s10-------|-------------------10-8-----8-8----|
 |-----6------------------|--------------------------9--------|
 |-7----------------------|-----------------------------------|
 |------------------------|-----------------------------------|
 |------------------------|-----------------------------------|

|
| e E e E e E e E e E e E e E e E
 
 |------------------------|-----------------------------------|
 |------------------------|-----------------------------------|
 |------------------------|-----------------------------------|
 |-----7---7------5-5-----|-----7-----------7--5---5----------|
 |--------------------7-7-|----------------------------7-7----|
 |-5-5--------------------|-5-5-------------------------------|

[E7] [D7]  
 
 |--3--| |---3---| |----3----|

Q E E H E E E S S S S E E E E +E E
 
 |---------------------|-------------------------5-------------|
 |-8b8.5---------------|-8-5-----------------5-----------------|
 |---------9-8-7-------|-------7-7p5---5-7b9-------7b9r(7)---5-|
 |---------------------|-------------7-------------------------|
 |---------------------|---------------------------------------|
 |---------------------|---------------------------------------|

|
| e E e E e E e E e e e E e E e e
 
 |---------------------|---------------------------------------|
 |---------------------|---------------------------------------|
 |---------9-9-7-7-----|---------7---7---5-----5---------------|
 |-----------------9-9-|---------------------------7-------7---|
 |-7-----7-------------|-5---5---------------------------------|
 |---------------------|---------------------------------------|

[A7] [F] [E] [A5]  
 
 |--3--| |--3--| |--3--| |3| |-3-|

Q E E E E E E E E E E Q +E E E E E E E
 
 |------------5-------------------|-------------------------||
 |--------5-----8-5---------------|-------------------------||
 |-----/6-------------7b9-7-5h==7-|-5---------------7---5---||
 |-7------------------------------|---7---(7)-----7---7-----||
 |--------------------------------|-----------7-------------||
 |--------------------------------|-------------------------||

|
| |-3-|
| e e e E e E e E e E e E E E E E E
 
 |--------------------------------|-------------------------||
 |--------------------------------|-------------------------||
 |--------------------------------|-------------------------||
 |------7---7---5---5-------------|--------7--6---7-7-7-7---||
 |------------------------7---7---|--------8--7---7-7-7-7---||
 |-5-5----------------------------|-5-------------5-5-5-5---||

[A]Gtr I[A6Aus4] [A6Aus4]
|-3-| |-3-|
[E]| [E] [E] [E]| [E] [E]| [E]| [E]| [E]| [E]| [E] [E] [E]| [E] [E]| [E]| [E]| [E]|
[/] [/] [/] [/] [/] [/] [/] [/] [/] [/] [/] [/] 
Gtr II
|-3-| |-3-|
q E E E E E E E q E E E E E E E
 
 |-------------------|-------------------|
 |-------------------|-------------------|
 |-6-----6-----7---5-|-6-----6-----7---5-|
 |-----------7---7---|-----------7---7---|
 |-------------------|-------------------|
 |-------------------|-------------------|

[A6Aus4]  
 
 |-3-| |-3-| |-3-| |-3-| |-3-|

[E]| [E] [E] [E]| [E] [E]| [E]| [E]| [E]| [E]| [E]| [E]| [E]| [E]| [E]| [E]| [E]| [E]| [E]| [E]| [E]|
[/] [/] [/] [/] [/] [/] [/] [/] [/] [/] [/] [/] [/] [/] [/] [/] [/] [/] 
 
 |-3-| |-3-| |-3-| |-3-|

q E E E E E E E E E E E E E E E E Q
 
 |-------------------|---------------------------|
 |-----------------5-|-/8-8-8-7-7-7-6-6-6--------|
 |-6-----6-----7---5-|-/9-9-9-8-8-8-7-7-7-6------|
 |-----------7---7---|---------------------------|
 |-------------------|---------------------------|
 |-------------------|---------------------------|

[D7]  
 
 |--3--| |--3--|

E E E E +E Q E E Q E E E Q E E
 
 |---------------------------------|-------------------------|
 |---------------------------------|-------------------------|
 |-7p5-----5b5.5==(5)r-----5b5.5---|-----7p5-----5b5.5-------|
 |-------7-------------7-----------|-----------7---------7---|
 |---------------------------------|-------------------------|
 |---------------------------------|-------------------------|

|
| Gtr I
| e E e E e E e E e E e E e E e E
 
 |---------------------------------|-------------------------|
 |---------------------------------|-------------------------|
 |---------7-------7---5-5---------|-----7---7---5-----5-----|
 |-------------------------7-----7-|---------------------7-7-|
 |-5---5---------------------------|-5-5---------------------|
 |---------------------------------|-------------------------|

[A7]  
 
 |--3--| |--3--|

E E E E +E q E E Q E E E E E a Q
 
 |---------------------------------|-------------------------|
 |---------------------------------|-------------------------|
 |-7p5-----5b5.5==(5)r-----5b5.5---|-----7p5-----5-7-7s9-----|
 |-------7-------------7-----------|-----------7-------------|
 |---------------------0-----------|-------------------------|
 |---------------------------------|-------------------------|

|
| e E e E e E e E e E e E e E e E
 
 |---------------------------------|-------------------------|
 |---------------------------------|-------------------------|
 |---------------------------------|-------------------------|
 |---------7-------7---5-5---------|-----7---7---5-5---------|
 |-------------------------7-----7-|-------------------7-7---|
 |-5---5---------------------------|-5-5---------------------|

[E7]~ ~[D7]
 
 |------3------| |--3--|

Q E E E +E E Q Q a E E a E E E E E
 
 |-----------------------------|-----------------------------|
 |-----8-8-8b8.5==(8)r---------|-----------------------------|
 |-9---------------------9-----|-----7s9-7-5h7p5-----5b5.5---|
 |-----------------------------|-------------------7-------7-|
 |-----------------------------|-----------------------------|
 |-----------------------------|-----------------------------|

|
| e E e E e E e E e e E e e E e e
 
 |-----------------------------|-----------------------------|
 |-----------------------------|-----------------------------|
 |-----9-9-7-----------7-------|-------7-7---5---5-----------|
 |-------------------------9-9-|---------------------7-----7-|
 |-7-7-------------------------|-5-5-------------------------|
 |-----------------------------|-----------------------------|

[A7]~
 
 |--3--| |--3--| |--3--|

Q E E E E E E E E E E E E E +E E E E
 
 |-----------5-------------------|---------------------------||
 |-------5-----8-5---------------|-------------------7-------||
 |-----6-------------7b9-7-5---7-|-5b5.5-----------5-7-------||
 |-7-----------------------------|-------7-------------------||
 |-------------------------------|-----------7-(7)-----------||
 |-------------------------------|---------------------------||

|
| |--3--|
| e e e E e E e E E E E E E E E E E
 
 |-------------------------------|---------------------------||
 |-------------------------------|-------------------7-----5-||
 |-------------------------------|-----------------6-7-----5-||
 |-----7---7---5---5-------------|---------7-6-----7-7-7---7-||
 |-----------------------7---7---|---------8-7-----7---7-----||
 |-5-5---------------------------|-5---------------5---5-----||

[A]Gtr I[A6Aus4] [A6Aus4]
|-3-| |-3-|
[E]| [E] [E] [E]| [E] [E]| [E]| [E]| [E]| [E]| [E] [E] [E]| [E] [E]| [E]| [E]| [E]|
[/] [/] [/] [/] [/] [/] [/] [/] [/] [/] [/] [/] 
~
 
 |----3----| |-----3-----| |----3----| |-----3-----|

Q E +E E Q Q E +E E E a E E E +E E Q
 
 |-5---------------------------|-10b12r(10)---8--------------8b9==(8)r-----------|
 |-5---------------------------|----------------10-8h10---10---------------------|
 |-----7b9r(7)---5b6-----------|-------------------------------------------------|
 |-------------------7---------|-------------------------------------------------|
 |-----------------------------|-------------------------------------------------|
 |-----------------------------|-------------------------------------------------|

[A6sus4A]  
 
 |--3---| |--3---| |--3--| |--3--| |--3--|

[E]| [E] [E] [E]| [E] [E]| [E]| [E]| [E]| [E]| [E]| [E]| [E]| [E]| [E]| [E]| [E]| [E]| [E]| [E]| [E]|
[/] [/] [/] [/] [/] [/] [/] [/] [/] [/] [/] [/] [/] [/] [/] [/] [/] [/] 
 
 |--3--| |--3--| |--3--|

Q Q Q Q Q E E E E E E E E E
 
 |-15b17---15b17---15b17---15b17-----|-15b17-----15-12---------------------------|
 |-----------------------------------|-----------------15b17-15-13-15-15----13---|
 |-----------------------------------|-----------------------------------14------|
 |-----------------------------------|-------------------------------------------|
 |-----------------------------------|-------------------------------------------|
 |-----------------------------------|-------------------------------------------|

[D7]Gtr II
~~ ~~~~~~~~~~~
 
 |----3-----| |---3---|

Q E E E +E Q +E E E a E E e E E E E
 
 |----------------------------|------------------------------------------------|
 |------13-15-15b17r(15)------|---------13-14h15---15-15b17-13b13.5------------|
 |-14--------------------14---|-(14)-14-----------------------------14-12---14-|
 |----------------------------|------------------------------------------------|
 |----------------------------|------------------------------------------------|
 |----------------------------|------------------------------------------------|

|
| Gtr I
| e E e E e E e E e E e E e E e E
 
 |----------------------------|------------------------------------------------|
 |----------------------------|------------------------------------------------|
 |-------7--7--5------5-------|----------7-------7-----5-----5-----------------|
 |------------------------7-7-|--------------------------------------7----7----|
 |--5-5-----------------------|---5---5----------------------------------------|
 |----------------------------|------------------------------------------------|

[A7] ~~
 
 |------3------| |-----3------| |---3---|

E +E E Q Q Q Q Q e E E E E E E
 
 |--------------------------20b22---20b22---|-20---17------------------------|
 |-13b14==(13)r-----------------------------|--------------------------------|
 |------------------------------------------|---------19b21-19-17----17---19-|
 |------------------------------------------|---------------------19---------|
 |------------------------------------------|--------------------------------|
 |------------------------------------------|--------------------------------|

|
| e E e E e E e E e E e E e E e E
 
 |------------------------------------------|--------------------------------|
 |------------------------------------------|--------------------------------|
 |------------------------------------------|--------------------------------|
 |------------------7-7-5-5-----------------|-------7--7-----5--5------------|
 |--------------------------------7-------7-|----------------------7----7----|
 |--5-----------5---------------------------|--5-5---------------------------|

[E7] [D7]  
 
 |----3-----| |----3-----| |--3---| |--3--| |--3--| |----3----|

E E E E E E E +Q +E E a E E E E E E S S S S E +E E
 
 |------------17------------17---------------------|---------------------------------------|
 |-------17------------17--------------------------|-----8---------------------------------|
 |-19b21---------19b21---------19b21r(19)---(19)---|-7s9-----9-7-5-----7p5---5-7b8r(7)---5-|
 |-------------------------------------------------|-----------------7-----7---------------|
 |-------------------------------------------------|---------------------------------------|
 |-------------------------------------------------|---------------------------------------|

|
| e E e E e E e E e e e E e E e e
 
 |-------------------------------------------------|---------------------------------------|
 |-------------------------------------------------|---------------------------------------|
 |----------------9-------9-----7---------7--------|-----------7---7---5---5---------------|
 |--------------------------------------------9--9-|---------------------------7-------7---|
 |--7-------7--------------------------------------|---5---5-------------------------------|
 |-------------------------------------------------|---------------------------------------|

[A7]~ ~~~~~~~~
 
 |--3--| |--3--| |--3--| |3| |--3--|

Q E E E E E E E E E E Q +E E E E E E E
 
 |-----------5-------------------|-------------------------||
 |-------5-----8-5---------------|-----------------------5-||
 |-----6-------------7b9-7-5---7-|-5---------------7-----5-||
 |-7-----------------------------|---7---(7)-----7---7-----||
 |-------------------------------|-----------7-------------||
 |-------------------------------|-------------------------||

|
| e e e E e E e E e e e E e E e E
 
 |-------------------------------|-------------------------||
 |-------------------------------|-------------------------||
 |-------------------------------|-------------------------||
 |-----7---7---5---5-------------|--------7--7-5-5---------||
 |-----------------------7---7---|-----------------7---7---||
 |-5-5---------------------------|-5---5-------------------||

[A7]q E E +Q Q E E E E +E +Q E
 
 |-------------------------|---------------------------|
 |-------------------------|-----7---------------------|
 |-----7-5b5.5==(5)r-------|---7-7-5-(5)b5.5==(5)r-----|
 |-7---7-------------------|---------------------------|
 |-------------------------|---------------------------|
 |-------------------------|---------------------------|

|
| e E e E e E e E e E e E e E e E
 
 |-------------------------|---------------------------|
 |-------------------------|---------------------------|
 |-------------------------|---------------------------|
 |-----7-7-------5---5-----|-----7-7--5--------5-------|
 |---------------------7-7-|-----------------------7-7-|
 |-5-5---------------------|-5-5-----------------------|

E E E E +E +Q E E E E E +E +E Q
 
 |---------------------------|----------------------------|
 |-----7-5-(5)b5.5==(5)r-----|-----7-5-(5)b5.5==(5)r------|
 |-----7-5-(5)b5.5==(5)r-----|-----7-5-(5)b5.5==(5)r------|
 |---7-----------------------|---7------------------------|
 |---------------------------|----------------------------|
 |---------------------------|----------------------------|

|
| e E e E e E e E e E e E e E e E
 
 |---------------------------|----------------------------|
 |---------------------------|----------------------------|
 |---------------------------|----------------------------|
 |-----7-7--5--------5-------|-----7-7--5--------5--------|
 |-----------------------7-7-|-----------------------7-7--|
 |-5-5-----------------------|-5-5------------------------|

[D7]E E E E +Q. E E E E E +Q. E
 
 |-------------------|-------------------|
 |-----7-5-(5)-------|-----7-5-(5)-------|
 |-----7-5-(5)-------|-----7-5-(5)-------|
 |---7---------------|---7---------------|
 |-------------------|-------------------|
 |-------------------|-------------------|

|
| e E e E e E e E e E e E e E e E
 
 |-------------------|-------------------|
 |-------------------|-------------------|
 |-----7-7--5--5-----|-----7-7--5--5-----|
 |---------------7-7-|---------------7-7-|
 |-5-5---------------|-5-5---------------|
 |-------------------|-------------------|

[A7]E E E E +E +E Q E E E E +E +Q E
 
 |---------------------------|----------------------------|
 |-----7-5-(5)b5.5==(5)r-----|-----7-5-(5)b5.5==(5)r------|
 |-----7-5-(5)b5.5==(5)r-----|-----7-5-(5)b5.5==(5)r------|
 |---7-----------------------|---7------------------------|
 |---------------------------|----------------------------|
 |---------------------------|----------------------------|

|
| e E e E e E e E e E e E e E e E
 
 |---------------------------|----------------------------|
 |---------------------------|----------------------------|
 |---------------------------|----------------------------|
 |-----7-7--5--------5-------|-----7-7--5--------5--------|
 |-----------------------7-7-|-----------------------7-7--|
 |-5-5-----------------------|-5-5------------------------|

[E7]E E E E +E +E Q [D7]E E E E +E +Q E
 
 |---------------------------|---------------------------|
 |-----7-5-(5)b5.5==(5)r-----|-----7-5-(5)b5.5==(5)r-----|
 |-----7-5-(5)b5.5==(5)r-----|-----7-5-(5)b5.5==(5)r-----|
 |---7-----------------------|---7-----------------------|
 |---------------------------|---------------------------|
 |---------------------------|---------------------------|

|
| e E e E e E e E e e e E e E e e
 
 |---------------------------|---------------------------|
 |---------------------------|---------------------------|
 |-----9-9--7--------7-------|-----7-7--5--------5-------|
 |-----------------------9-9-|-----------------------7-7-|
 |-7-7-----------------------|-5-5-----------------------|
 |---------------------------|---------------------------|

[A7]  
 
 |----3----|

E E E E +E +Q E E E E E +E E E +E E
 
 |---------------------------|-------------5--------------||
 |-----7-5-(5)b5.5==(5)r-----|-----7-5-(5)-5--------------||
 |-----7-5-(5)b5.5==(5)r-----|-----7-5-(5)---7b9r(7)---5--||
 |---7-----------------------|---7------------------------||
 |---------------------------|----------------------------||
 |---------------------------|----------------------------||

|
| e e e E e E e E e e e E e E e E
 
 |---------------------------|----------------------------||
 |---------------------------|----------------------------||
 |---------------------------|----------------------------||
 |-----7-7--5--------5-------|-----7-7--5--5--------------||
 |-----------------------7-7-|---------------7-------7----||
 |-5-5-----------------------|-5-5------------------------||

[A7]  
 
 |-----3------| |----3----| |----3----|

+Q +E +E E E E E +E E +Q +E E E E E +E E
 
 |-------------------------5-------------|---------------------5-------------|
 |-------------------------5-------------|---------------------5-------------|
 |-(5)---(5)b6==(5)r---------7b9r(7)---5-|-(5)b5.5====(5)r-------7b8r(7)---5-|
 |---------------------------------------|-----------------------------------|
 |---------------------------------------|-----------------------------------|
 |---------------------------------------|-----------------------------------|

|
| e E e E e E e E e E e E e E e E
 
 |---------------------------------------|-----------------------------------|
 |---------------------------------------|-----------------------------------|
 |---------------------------------------|-----------------------------------|
 |--------7----------7---5-5-------------|-------------7---7-5-5-------------|
 |---------------------------7-------7---|-----------------------7-------7---|
 |--5--5---------------------------------|--5-------5------------------------|
 |-----3-----| |----3----|

+Q +E E E E E +E E +E +E Q E E E +E E
 
 |---------------------5---------------|-------------------5--------------*|
 |---------------------5---------------|-------------------5--------------*|
 |-(5)b5.5====(5)r-------7b8.5r(7)---5-|-(5)b6==(5)r---------7b9r(7)---5--*|
 |-------------------------------------|----------------------------------*|
 |-------------------------------------|----------------------------------*|
 |-------------------------------------|----------------------------------*|

|
| e E e E e E e E e E e E e E e E
 
 |-------------------------------------|----------------------------------*|
 |-------------------------------------|----------------------------------*|
 |-------------------------------------|----------------------------------*|
 |-------------7---7-5-5---------------|-------------7-7-5-5--------------*|
 |-----------------------7---------7---|---------------------7-------7----*|
 |--5-------5--------------------------|--5------5------------------------*|

Duration Legend
 
 ---------------
 W - whole; H - half; Q - quarter; E - 8th; S - 16th; T - 32nd; X - 64th; a - acciaccatura

+ - note tied to previous; . - note dotted; .. - note double dotted
Uncapitalized letters represent notes that are staccato (1/2 duration)
Irregular groupings are notated above the duration line
Duration letters will always appear directly above the note/fret number it represents the
duration for. Duration letters with no fret number below them represent rests. Multi-
bar rests are notated in the form Wxn, where n is the number of bars to rest for. Low
melody durations appear below the staff
Tablature Legend
 
 ----------------

h - hammer-on
p - pull-off
b - bend
pb - pre-bend
r - bend release (if no number after the r, then release immediately)
/\ - slide into or out of (from/to "nowhere")
s - legato slide
S - shift slide
- natural harmonic
(n) - artificial harmonic
n(n) - tapped harmonic
~ - vibrato
tr - trill
T - tap
TP - trem. picking
PM - palm muting
\n/ - tremolo bar dip; n = amount to dip
\n - tremolo bar down
n/ - tremolo bar up
/n\ - tremolo bar inverted dip
= - hold bend; also acts as connecting device for hammers/pulls
- volume swell (louder/softer)
x - on rhythm slash represents muted slash
o - on rhythm slash represents single note slash
Misc Legend
 
 -----------

| - bar
|| - double bar
||o - repeat start
o|| - repeat end
*| - double bar (ending)
: - bar (freetime)
$ - Segno
& - Coda
Tempo markers - = BPM(8/16=s8/s16), where s8 = swing 8ths, s16 = swing 16ths
***************************************************************************************
* Generated using Power Tab Editor by Brad Larsen - http://powertab.guitarnetwork.org *
***************************************************************************************

Important: The song above is NOT stored on the Chordie server. The original song is hosted at www.guitaretab.com. Chordie works as a search engine and provides on-the-fly formatting. Chordie does not index songs against artists'/composers' will. To remove this song please click here.

Text color:
Chord color:
Chord grids: 
Font size:    
Page size: 

A A5 A6sus4 A7 D7 E E7 F
Rate #2 of 3 versions

Jango Player

Login - add to songbook

SHARE PAGE  




You need to log in to post comments