Guitar Tabs, Chords and Lyrics
Major upgrade!! After one year development the new version of Chordie is now online! Please give feedback.


Maps  Yeah Yeah Yeahs

Standard tuning
Pack [G]up I'm straight Enough
 
 |-3--3--3---7--7--7--10--10--10-|
 |-------------------------------|

|0000000000000000000000000000000|
 
 |-------------------------------|
 |-------------------------------|
 |-------------------------------|

Oh, [D]say say say (x4)
 
 |-7--7--7--3--3--3--12--12--12-10--3--3-|
 |---------------------------------------|

|000000000000000000000000000000000000000|
 
 |---------------------------------------|
 |---------------------------------------|
 |---------------------------------------|

Oh, [G]say say say
[C]Wait, they don't [G]love you like I love you
[Em]Wait, they don't [G]love you like I love you
[C]Ma--[C/B]---ps, [D/F#]wait!
[G]They don't love you like I love you...
SOLO:
 
 |--777-5-33-3--3-00000---3--3--3-|
 |----------------------3---------|

|00000000000000000000000000000000|
 
 |--------------------------------|
 |--------------------------------|
 |--------------------------------|

Made off
Don't stray
My kind's your kind
I'll stay the same
 
 |-7--7--7--3--3--3--7--7--7--10--10--10-|
 |---------------------------------------|

|000000000000000000000000000000000000000|
 
 |---------------------------------------|
 |---------------------------------------|
 |---------------------------------------|

Pack up
Don't stray
Oh, say say say
Oh, say say say
 
 |-7--7--7--3--3--3--12--12--12-10--10--10-|
 |-----------------------------------------|

|00000000000000000000000000000000000000000|
 
 |-----------------------------------------|
 |-----------------------------------------|
 |-----------------------------------------|

[C]Wait! They don't[G] love you like I love you
[Em]Wait! They don't[G] love you like I love you
[C]Ma--[C/B]---ps, [D/F#]wait!
(x2)
[C]Wait! They don't[G] love you like I love you
[Em]Wait! They don't[G] love you like I love you
[C]Ma--[C/B]---ps, [D/F#]wait!
They don't [G]love you like I love you...
[DDDDD]  
SOLO..
(x2)
[C]Wait! They don't[G] love you like I love you
[Em]Wait! They don't[G] love you like I love you
[C]Ma--[C/B]---ps, [D/F#]wait!
They don't [G]love you like I love you
OUTRO:
 
 |--777-5-33-3--3-00000---3--3--3-|
 |----------------------3---------|

|00000000000000000000000000000000|
 
 |--------------------------------|
 |--------------------------------|
 |--------------------------------|


Important: The song above is NOT stored on the Chordie server. The original song is hosted at www.guitaretab.com. Chordie works as a search engine and provides on-the-fly formatting. Chordie does not index songs against artists'/composers' will. To remove this song please click here.

Text color:
Chord color:
Chord grids: 
Font size:    
Page size: 

C C/B D D/F# Em G
Rate #2 of 7 versions

Jango Player

Login - add to songbook

SHARE PAGE  




You need to log in to post comments