Guitar Tabs, Chords and Lyrics
Server problems seems to be fixed. Chordie has been experiencing problems with songs disappearing. These issues now seems to be fixed, but still verifying the fix. If you find anything strange, please email admin@chordie.com.


Be the Young  Yellowcard

Drop E
by Rato
Intro Gm# F# E B
 
 e|---------------------------------------------------------------------------|
 b|---------------------------------------------------------------------------|
 g|-------------------------6--8----------------------------------------------|
 d|---9-9-8--9-9------9-9---------9-------------------------------------------|
 a|---------------------------------------------------------------------------|
 e|---------------------------------------------------------------------------|

Intro and Ref
 
 e|---------14--------14------14------11------12-------12-------12------11----|
 b|--9~/12------12-12----12-12---12-12---12-12----12-12----12-12---12-12------|
 g|---------------------------------------------------------------------------|
 d|---------------------------------------------------------------------------|
 a|---------------------------------------------------------------------------|
 e|---------------------------------------------------------------------------|

[Gm#] [F#] [E] [B]  
[Gm#]I made th[F#]ese wishes with you
[B]Went coast to coast,
[Gm#]And we[F#] both fe[E]lt so alive (so alive).
[Gm#]We trad[F#]ed safe for something
[B]We just had to be,
[Gm#]And we[F#] almost [E]lost our m[F#]inds
But we're still here searching.
[Gm#]This is l[F#]oud, this is cold
[E]This [B]is endless and I know
[Gm#]Growing[F#] up has [E]just begu[B]n
[Gm#]But there[F#]'s a place
We coul[E]d find, whe[B]re this pain is useless
[Gm#]And we'l[F#]l forever [E]be the yo[B]ung.
[Gm#]Summer [F#]came and flew [B]by
Twice as fast.
[Gm#]It was[F#] close eno[E]ugh to feel (enough to feel).
[Gm#]And aft[F#]er all this w[B]aiting
Disguised to fall.
[Gm#]I nee[F#]d this[E] to be [F#]real.
Oh, please let it be real.
[Gm#]This is l[F#]oud, this is cold
[E]This [B]is endless and I know
[Gm#]Growing[F#] up has [E]just begu[B]n
[Gm#]But there[F#]'s a place
We coul[E]d find, whe[B]re this pain is useless
[Gm#]And we'l[F#]l forever [E]be the yo[B]ung.
Gm# F# E B 2x
[Gm#]Where I w[F#]as broken [B]I have healed
I learned to fight, I learned to feel.
[Gm#]And I[F#] can't beli[E]eve my e[E]yes.
[Gm#]When you a[F#]re still he[B]re next to me.
All I need, you're all I see.
[Gm#]And thi[F#]s life we [E]hope to f[F#]ind.
[Gm#]This is l[F#]oud, this is cold
[E]This [B]is endless and I know
[Gm#]Growing[F#] up has [E]just begu[B]n
[Gm#]But there[F#]'s a place
We coul[E]d find, whe[B]re this pain is useless
[Gm#]And we'l[F#]l forever [E]be the yo[B]ung.
[Gm#]This is l[F#]oud, this is cold
[E]This [B]is endless and I know
[Gm#]We'll [F#]forever [E]be the yo[B]ung.
[Gm#]This is l[F#]oud, this is cold
[E]This [B]is endless and I know
[Gm#]We'll [F#]forever [E]be the yo[B]ung.
[Gm#]It's e[F#]ndless a[E]nd I know...

Important: The song above is NOT stored on the Chordie server. The original song is hosted at www.guitaretab.com. Chordie works as a search engine and provides on-the-fly formatting. Chordie does not index songs against artists'/composers' will. To remove this song please click here.

Text color:
Chord color:
Chord grids: 
Font size:    
Page size: 

B E F#
Rate #1 of 6 versions

Jango Player

Login - add to songbook

SHARE PAGE  




You need to log in to post comments