Guitar Tabs, Chords and Lyrics
Server problems seems to be fixed. Chordie has been experiencing problems with songs disappearing. These issues now seems to be fixed, but still verifying the fix. If you find anything strange, please email admin@chordie.com.


Sure Thing Falling  Yellowcard

Lights and Sounds
2006 Capitol Records
Submitted by: paramore_fans@yahoo.com
Key: C
Tuning: Standard EADGBe (But originally Drop C, I just transposed it for the lazy people)
Chords sued:
[F]C [-]- [133211]x32010
Am - x02210
G - 320003
Dm - xx0231
Bb - x13331
Intro: F--C (x4)
 
 e|-------------------------------0-|
 B|-------1-0---0-------------1-3---|
 G|-----0-----0---2---2-0---0-------|
 D|---3-------------3-----2---------|
 A|-3-------------------------------|
 E|---------------------------------|

then
 
 e|---------------------------------12-|
 B|-------1-0---0----------------13----|
 G|-----0-----0---2---2-0---0-12-------|
 D|---3-------------3-----2------------|
 A|-3----------------------------------|
 E|------------------------------------|

Verse 1:
[F] Here like spend pyors and [C]hitlist radio
[F] He turns it off when he dissed one [C]song that he knows
And [Dm]you [F]breathe the [C]windows down
[F] He drive an hour for us to [C]make your way back home
[F] He ride in silence beause [C]he will not let go
And [Dm]you [F]breathe the [C]windows
it's a [Dm]new [F]place that you [C]have found
Chorus 1:
[C] I will not blame like in [F]booth
All about heroes and [C]curves
One of most seize you from [F]this
The other one seize you and then
[Am] [Dm]Sure [Bb]things [C]fall and
[Am]all [Dm]sure [Bb]things [C]fall
Verse 2:
[F] Do you remember how we [C]used to get so high
[F] It didn't work cause first we [C]tried it two more times
And [Dm]we could [F]breathe the [C]windows down
[F] I was thinking of the [C]temperature outside
[F] Cold like the water that was [C]running from our eyes
And [Dm]we could [F]breathe the [C]windows down
it's a [Dm]new [F]place that [C]we have found
(Repeat Chorus 1)
Bridge:
[Am] He can [F]take you all the [C]way to church this [G]time
[Am] Don't for[F]get you're sold in [C]up in filthy [G]lies
Interlude: Am-F-C-G (x4) Bb
Violin: will enter at 3rd time
 
 e|--13-12-----------------|-13-12-------15----13-12-|
 B|--------13-----------13-|-------13----------------|
 G|-----------12-----12----|----------12----12-------|
 D|---------------14-------|-------------------------| x2
 A|------------------------|-------------------------|
 E|------------------------|-------------------------|

x3
then
 
 e|--13~--13~--12~-|
 B|----------------|
 G|----------------|
 D|----------------|
 A|----------------|
 E|----------------|

Chorus 2:
[C] I will not blame like in [F]booth
All about heroes and [C]curves
One of most seize you from [F]this
The other one steals you[C]
I follow the places I [F]look
And all of the pictures I [C]took
One of most here with me [F]now
Finally finding out
[Am] [Dm]Sure [Bb]things [C]fall and
Am Dm Bb C(hold)
all sure things fall

Important: The song above is NOT stored on the Chordie server. The original song is hosted at www.guitaretab.com. Chordie works as a search engine and provides on-the-fly formatting. Chordie does not index songs against artists'/composers' will. To remove this song please click here.

Text color:
Chord color:
Chord grids: 
Font size:    
Page size: 

Am Bb C Dm F G
Rate #1 of 6 versions

Login - add to songbook

SHARE PAGE  




You need to log in to post comments