Guitar Tabs, Chords and Lyrics
Server problems seems to be fixed. Chordie has been experiencing problems with songs disappearing. These issues now seems to be fixed, but still verifying the fix. If you find anything strange, please email admin@chordie.com.


Five Becomes Four  Yellowcard

I'm new at this so here's five becomes four by the greatest band ever!!
intro: verse 1
 
 e|------------------------|--------------------------------------------|
 B|---1---1---1---1---1---1|---1---1---1---1---1---1---1---1---1---1---1|
 G|------------------------|-----------------------------------------0--|
 D|-2---2---2---2---2---2--|-2---2---2---2---2---2---3---3---3---3------|
 A|------------------------|--------------------------------------------|
 E|------------------------|--------------------------------------------|

needed some time so I could find a little strength
 
 e|------------------------------------------------------------------------|
 B|---1---1---1---1---1---1---1---1---1---1---1---1---1---1---1---1---1---1|
 G|-0---0---0-----------------------------------0---0---0---0--------------|
 D|-------------3---3---3---3---2---2---2---2-------------------3---3---3--|
 A|------------------------------------------------------------------------|
 E|------------------------------------------------------------------------|

to redefine what ive become what I have done i never asked to be the one
e|----|
B|---1|
G|----|
D|-3--|
A|----|
E|----|
 
 interlude: Am, Em, F, C, G,... Am, Em, F, e|--33--33---3--33--33---3|
 B|1---1----1--0---0----0--|

[Am]im riding it [F]out this [C]storm that you've brought [G]in bringing it
[Am]down on me ar[F]ound for [C]you id go a[G]gain its gotta
[Am]be easy to [F]see what every[G]one takes out of [C]me [Em]knockin me
[Am]down draggin me [F]out how did you [G]end up in that [C]crowd
chorus:
[Am]did you run away did you fall ap[Em]art did you see yourself for what you a[F]re
will you be lookin for it a[C]nymore when [G]five becomes four
[Am]when your all alone with a mel[Em]ody do you close your eyes and think of [F]me
will you still hear me singin an[C]ymore when f[G]ive becomes four
[Am]try and put as[F]ide your [C]history and [G]pride maybe for
[Am]one moment in [F]time we'll [C]all be on your
[G]side, the story [Am]goes nobody [F]knows what it was [G]like when you were [C]through
[Em]someone who [Am]cared out in the [F]air you'd let them [G]crash down any[C]where
1 measure interlude Am,
chorus:
[Am]did you run away did you fall ap[Em]art did you see yourself for what you a[F]re
will you be lookin for it a[C]nymore when [G]five becomes four
[Am]when your all alone with a mel[Em]ody do you close your eyes and think of [F]me
will you still hear me singin an[C]ymore when f[G]ive becomes four
1 measure play for each,then mute between each chord
Am...F...G...C...Em..
[Am]where did you go i need to know i waited [F]here you never showed
its gonna [G]be harder for me cuz i can [C]forgive so many things
[Em]when you were[Am] down and i was around why would you [F]try and hurt me now
just tell me wh[F]y[G] [Am] [F] [G] [Am]
F G Am F G Am F F (let ring)
just tell me why
(no chords)
did you run away, did you run away, did you run away
[Am]did you run away did you fall ap[Em]art did you see yourself for what you a[F]re
will you be lookin for it a[C]nymore when [G]five becomes four
[Am]when your all alone with a mel[Em]ody do you close your eyes and think of [F]me
 
 e|--3-3---3-3--3---3-3---3-3---3|
 B|1----1------1--0----0------0--|

will you still hear me singin anymore when five becomes four
 
 e|--3---3---3---3---3-----3---3---3---3---3---113-113-113-113-113|
 B|11--11--11--11--11----00--00--00--00--00-----------------------|

when five becomes four
 
 e|--3---3---3---3---3|
 B|11--11--1--00--00--|

when five becomes four.
 
 e|--3---3---3---3---3-----3---3---3---3---3---113-113-113-113-113|
 B|11--11--11--11--11----00--00--00--00--00-----------------------|
 e|--3---3---3---3---3-3|
 B|11--11--1--00--00--0-|
 e|--3---3---3---3---3-----3---3---3---3---3---113-113-113-113-113|
 B|11--11--11--11--11----00--00--00--00--00-----------------------|
 e|--3---3--3-3333|
 B|11--11--1--3333| 

end
hope you guys like it ! keep on rockin to yellowcard

Important: The song above is NOT stored on the Chordie server. The original song is hosted at www.guitaretab.com. Chordie works as a search engine and provides on-the-fly formatting. Chordie does not index songs against artists'/composers' will. To remove this song please click here.

Text color:
Chord color:
Chord grids: 
Font size:    
Page size: 

Am C Em F G
Rate #1 of 2 versions

Login - add to songbook

SHARE PAGE  




You need to log in to post comments