Guitar Tabs, Chords and Lyrics
Major upgrade!! After one year development the new version of Chordie is now online! Please give feedback.


Crni leptir  YU Grupa

YU Grupa - Crni leptir
(I think this intro is 99% correct,AND LISTEN THE SONG AND YOU WILL SEE ITS
CORRECT) In this intro play barre chords Intro (solo and chords):
[G] [Am] [G]  
 
 E|-----------5-----|-5/7----7--5-----|-3/5----5--3------|-----------------|
 B|---5---8---------|--------------8--|--------------7---|-7/8----7--8--7--|
 G|-----------------|-----------------|------------------|-----------------|
 D|-----------------|-----------------|------------------|-----------------|
 A|-----------------|-----------------|------------------|-----------------|
 E|-----------------|-----------------|------------------|-----------------|

[Em] [D] [G] [D] [Em]  
 
 ------------------|------------------|------------------|------------------|
 --3/5-------------|-5/7----7--5--7---|--7/8----7--5-----|-3/5---5----5-----|
 ----------------7-|------------------|---------------7--|----------7-------|
 ------------------|------------------|------------------|------------------|
 ------------------|------------------|------------------|------------------|
 ------------------|------------------|------------------|------------------|

[Em] [G] [Am] [G]  
 
 -----------5------|-5/7----7--5------|-3/5----5--3------|------------------|
 ---5---8----------|--------------8---|--------------7---|-7/8----7--8--7---|
 ------------------|------------------|------------------|------------------|
 ------------------|------------------|------------------|------------------|
 ------------------|------------------|------------------|------------------|
 ------------------|------------------|------------------|------------------|

[Em] [D] [G] [D] [Em]  
 
 ------------------|------------------|------------------|------------------|
 --3/5-------------|-5/7----7--5------|--8b--8b-8b-7-----|-3/5----5----5~---|
 ----------------7-|--------------7---|--------------7---|-----------7------|
 ------------------|------------------|------------------|------------------|
 ------------------|------------------|------------------|------------------|
 ------------------|------------------|------------------|------------------|

Song:
|Em | Em |D |Em
Ulicna svetiljka baca svetlost u krug
|Em |Em |D |Em
dok crni leptiri lete pravo na nju
1Ref:
Em | Am C |Em | D A
Ali ne znaju da tu je krAAaaj
Em |C |G D |Em
da ih ubija njene svetlosti sjaj
(play it two times)
|Em |Em |D |Em
Nekad sam leteo leptir bio i ja
|Em | Em |D |Em
svetlost me mamila, krila mi sprzila
2Ref:
Em | Am C |Em |D A
Crni leptiru bezi u noc
Em |C |G D |Em
jutro sacekaj svetlost ce doc'

Important: The song above is NOT stored on the Chordie server. The original song is hosted at www.guitaretab.com. Chordie works as a search engine and provides on-the-fly formatting. Chordie does not index songs against artists'/composers' will. To remove this song please click here.

Text color:
Chord color:
Chord grids: 
Font size:    
Page size: 

Am D Em G
Rate #1 of 6 versions

Jango Player

Login - add to songbook

SHARE PAGE  




You need to log in to post comments