Guitar Tabs, Chords and Lyrics
Major upgrade!! After one year development the new version of Chordie is now online! Please give feedback.


La Grange  ZZ Top

LA GRANGE
As recorded by ZZ Top
Gtr I (E A D G B E) - 'Untitled'
Gtr II (E A D G B E) - 'Untitled'
Intro
Q=160(8=s8)
[4/4] Gtr I
H Q E E E E E E E E E E E E Q E E E E E E E E E E E E
 
 |-------------||-----------------|-------------------|---------------------|
 |-------------||-----------------|-------------------|---------------------|
 |-----------x-||-2-2---2---2---2-|---2-----------5---|--5b6-2---2---2---2--|
 |-----------x-||-2-2---2---2---2-|---2------5--------|--2---2---2---2---2--|
 |-------------||-----------------|-------0-(0)-0---0-|-(0)-----------------|
 |-------------||-----------------|-------------------|---------------------|

Q E E +E Q E +E E Q H
E E Q E E E E E E E E E E E E
 
 |-------------------|--------------------||
 |-------------------|--------------------||
 |---2-----------5---|--5b6-2---2---2---2-||
 |---2------5--------|--2---2---2---2---2-||
 |-------0-(0)-0---0-|-(0)----------------||
 |-------------------|--------------------||

Q E E +E Q E +E E Q H
Verse
E E Q E E E E E E E E E E E E
 
 |-------------------|--------------------|
 |-------------------|--------------------|
 |---2-----2---5b6-2-|--5b6-2---2---2---2-|
 |---2-----5---2-----|--2---2---2---2---2-|
 |-------0---0-----0-|-(0)----------------|
 |-------------------|--------------------|

Q E E E Q E +Q Q H
E E E E Q E E E E E E E E E E
 
 |----------------------|-------------------|
 |----------------------|-------------------|
 |---2---------------^2-|-(2)-2---2---2---2-|
 |---2---2-(2)-------^2-|-(2)-2---2---2---2-|
 |----------3b3.5--5----|--0----------------|
 |----------------------|-------------------|

E E E E Q E E E E E E E E E E
 
 |----------------|-------------------|
 |----------------|-------------------|
 |---2----------2-|-(2)-2---2---2---2-|
 |---2---2------2-|-(2)-2---2---2---2-|
 |---------3--5---|--0----------------|
 |----------------|-------------------|

E E E E Q E E E E E E E E E E E E E E Q E E
 
 |----------------|-------------------|----------------||
 |----------------|-------------------|----------------||
 |---2----------2-|-(2)-2---2---2---2-|---2----------2-||
 |---2---2------2-|-(2)-2---2---2---2-|---2---2------2-||
 |---------3--5---|--0----------------|---------3--5---||
 |----------------|-------------------|----------------||

E E E E E E E E E E E E Q E E E E E E E E E E E E E E Q E E
 
 |-------------------|----------------|-------------------|----------------|
 |-------------------|----------------|-------------------|----------------|
 |-(2)-2---2---2---2-|---2----------2-|-(2)-2---2---2---2-|---2----------2-|
 |-(2)-2---2---2---2-|---2---2------2-|-(2)-2---2---2---2-|---2---2------2-|
 |--0----------------|---------3--5---|--0----------------|---------3--5---|
 |-------------------|----------------|-------------------|----------------|

E E E E E E E E E E E E Q E E E E E E E E E E E E E E Q E E
 
 |-------------------|----------------|-------------------|----------------||
 |-------------------|----------------|-------------------|----------------||
 |-(2)-2---2---2---2-|---2----------2-|-(2)-2---2---2---2-|---2----------2-||
 |-(2)-2---2---2---2-|---2---2------2-|-(2)-2---2---2---2-|---2---2------2-||
 |--0----------------|---------3--5---|--0----------------|---------3--5---||
 |-------------------|----------------|-------------------|----------------||

E E E E E E E E W E E E E E E E E E E E E Q E E
 
 |-------------------|----------||-----------------|------------------|
 |-------------------|----------||-----------------|------------------|
 |-(2)-2---2---2---2-|----------||-2-2---2---2---2-|---2---2-(2)----2-|
 |-(2)-2---2---2---2-|----------||-2-2---2---2---2-|---2---2-(2)----2-|
 |--0----------------|----------||-0---------------|----------3---5---|
 |-------------------|----------||-----------------|------------------|

E E E E E E E E E E E E Q E E E E E E E E E E E E E E Q E E
 
 |-------------------|------------------|-------------------|------------------|
 |-------------------|------------------|-------------------|------------------|
 |-(2)-2---2---2---2-|---2---2-(2)----2-|-(2)-2---2---2---2-|---2---2-(2)----2-|
 |-(2)-2---2---2---2-|---2---2-(2)----2-|-(2)-2---2---2---2-|---2---2-(2)----2-|
 |--0----------------|----------3---5---|--0----------------|----------3---5---|
 |-------------------|------------------|-------------------|------------------|

Verse 2
E E E E E E E E E E E E Q E E E E E E E E E E E E E E Q E E
 
 |-------------------|------------------||-----------------|------------------|
 |-------------------|------------------||-----------------|------------------|
 |-(2)-2---2---2---2-|---2---2-(2)----2-||-2-2---2---2---2-|---2---2-(2)----2-|
 |-(2)-2---2---2---2-|---2---2-(2)----2-||-2-2---2---2---2-|---2---2-(2)----2-|
 |--0----------------|----------3---5---||-0---------------|----------3---5---|
 |-------------------|------------------||-----------------|------------------|

E E E E E E E E E E E E Q E E E E E E E E E E E E E E Q E E
 
 |-------------------|------------------|-------------------|------------------|
 |-------------------|------------------|-------------------|------------------|
 |-(2)-2---2---2---2-|---2---2-(2)----2-|-(2)-2---2---2---2-|---2---2-(2)----2-|
 |-(2)-2---2---2---2-|---2---2-(2)----2-|-(2)-2---2---2---2-|---2---2-(2)----2-|
 |--0----------------|----------3---5---|--0----------------|----------3---5---|
 |-------------------|------------------|-------------------|------------------|

E E E E E E E E E E E E Q E E E E E E E E E E E E E E Q E E
 
 |-------------------|------------------|-------------------|------------------|
 |-------------------|------------------|-------------------|------------------|
 |-(2)-2---2---2---2-|---2---2-(2)----2-|-(2)-2---2---2---2-|---2---2-(2)----2-|
 |-(2)-2---2---2---2-|---2---2-(2)----2-|-(2)-2---2---2---2-|---2---2-(2)----2-|
 |--0----------------|----------3---5---|--0----------------|----------3---5---|
 |-------------------|------------------|-------------------|------------------|

E E E E E E E E E E E E Q E E E E E E E E E E E E E E Q E E
 
 |-------------------|------------------|-------------------|------------------||
 |-------------------|------------------|-------------------|------------------||
 |-(2)-2---2---2---2-|---2---2-(2)----2-|-(2)-2---2---2---2-|---2---2-(2)----2-||
 |-(2)-2---2---2---2-|---2---2-(2)----2-|-(2)-2---2---2---2-|---2---2-(2)----2-||
 |--0----------------|----------3---5---|--0----------------|----------3---5---||
 |-------------------|------------------|-------------------|------------------||

Guitar Solo
Gtr I
~~~~~
E E E E E E E E W W
 
 |-----------------|----------||-------------------------|
 |-----------------|----------||-11b13-------------------|
 |-2-2---2---2---2-|----------||-------------------------|
 |-2-2---2---2---2-|----------||-------------------------|
 |-0---------------|----------||-------------------------|
 |-----------------|----------||-------------------------|

|
| Gtr II
| W W E E E E E E E E
 
 |-----------------|----------||-------------------------|
 |-----------------|----------||-------------------------|
 |-----------------|----------||-------------------------|
 |-----------------|----------||-------10---10---10---10-|
 |-----------------|----------||-10----10---10---10---10-|
 |-----------------|----------||--8----------------------|
 |---3---| |---3---| |--3---| |--3---|

[E] [E] [E] [E] [E] [E] [E] [E] [E] [E] [E] [E]  
 
 |-8---------------------------------------|
 |---11p===8-11p8-------8------------------|
 |-------------------10---8------10-8------|
 |----------------------------10--------10-|
 |-----------------------------------------|
 |-----------------------------------------|

|
| E E E E E E E E
 
 |-----------------------------------------|
 |-----------------------------------------|
 |-----------------------------------------|
 |------10--------10----8---x----10---x----|
 |------10--------10----6---x-----8---x----|
 |-----------------------------------------|

~~~~ ~~~
 
 |---3----| |---3---|

E E E +Q E E E E E Q. S S E E E E
 
 |------------------------------------|-----------------------------|
 |------------------------------------|-----------------------------|
 |-10---------------------------------|-----------------------------|
 |----10----10-(10)------------8------|-10---------------8--8-------|
 |---------------------8h10------8----|-----------8h10-(10)----8----|
 |---------------------------------11-|--------------------------11-|

|
| E E E E E E E E E E E E E E E E
 
 |------------------------------------|-----------------------------|
 |------------------------------------|-----------------------------|
 |------------------------------------|-----------------------------|
 |-------10---------10------10-----10-|-----10---10------8--x-10--x-|
 |-10----10---------10------10-----10-|-----10---10------6--x--8--x-|
 |--8---------------------------------|-----------------------------|

~~~
E Q. E +E E a E E E a E E E E E E
 
 |-------------------------------|-------------------------|
 |-------------------------------|-------------------------|
 |-------------8b10==(8)r--------|-------------------------|
 |-10-10-------------------------|-----8-------------------|
 |-----------------------------8h|=10----10s8--6-8-6-------|
 |--------------------------x----|--------------------8-6--|

|
| E E E E E E E E E E E E E E E E
 
 |-------------------------------|-------------------------|
 |-------------------------------|-------------------------|
 |-------------------------------|-------------------------|
 |----10----10-------10-------10-|----10------10-8-x-10-x--|
 |-10-10----10-------10-------10-|----10------10-6-x--8-x--|
 |--8----------------------------|-------------------------|

~~ ~~~~~~~~~~~~~
 
 |---3---|

Q a E E E E E E a E a Q. +Q E E E
 
 |-------------------------|-----------------------------------|
 |-------------------------|--------------------------------11-|
 |-------------------------|------------------------10s12------|
 |-------------8-----------|-8s10-8h10-------(10)--------------|
 |-------8s10----8--6-8--6-|-----------------------------------|
 |--8----------------------|-----------------------------------|

|
| E E E E E E E E E E E E E E E E
 
 |-------------------------|-----------------------------------|
 |-------------------------|-----------------------------------|
 |-------------------------|-----------------------------------|
 |----10------10---10---10-|--------10----10---8--x-10----x----|
 |-10-10------10---10---10-|--------10----10---6--x--8----x----|
 |--8----------------------|-----------------------------------|

~~
 
 |----3----| |---3----| |-----3------| |---3---|

+E E E E E E Q a Q Q Q E E E E E E E
 
 |------------------------------------------------|----------------------------|
 |-(11)-------11----11-------11-------------------|----------------------------|
 |------12-------12-------12-------12s10---8b9----|----------------------------|
 |------------------------------------------------|-10------------8------------|
 |------------------------------------------------|-------8-10------8-----8----|
 |------------------------------------------------|-------------------11----11-|

|
| E E E E E E E E E E E E E E E E
 
 |------------------------------------------------|----------------------------|
 |------------------------------------------------|----------------------------|
 |------------------------------------------------|----------------------------|
 |---------10----------10-------10-------------10-|----10------10---8--x-10--x-|
 |--10-----10----------10-------10-------------10-|----10------10---6--x--8--x-|
 |---8--------------------------------------------|----------------------------|
 |--3---| |--3---| |--3---|

Q E E E E E E E E E a E E E S S Q q
 
 |----------------------------------|--------------------------------|
 |----------------------------------|--------------------------------|
 |----------------------------------|------------------------8b8.5---|
 |----------------------------------|-------8-10--8----10------------|
 |----------------6------6-8-6----8-|-8s10----------10---------------|
 |--8----8-6----8---8---------------|--------------------------------|

|
| E E E E E E E E E E E E E E E E
 
 |----------------------------------|--------------------------------|
 |----------------------------------|--------------------------------|
 |----------------------------------|--------------------------------|
 |----10-----10-------10-------10---|------10----10-----8-x-10-----x-|
 |-10-10-----10-------10-------10---|------10----10-----6-x--8-----x-|
 |--8-------------------------------|--------------------------------|

~~ ~~ ~~
Q E E Q E +e Q a H E E
 
 |------------------------------|---------------------------|
 |------------------------------|-x\------------------------|
 |-------------------8b10==(8)r-|-x\----8s10---------8------|
 |-10----10p=8-10---------------|-x\-------------------10---|
 |------------------------------|---------------------------|
 |------------------------------|---------------------------|

|
| E E E E E E E E E E E E E E E E
 
 |------------------------------|---------------------------|
 |------------------------------|---------------------------|
 |------------------------------|---------------------------|
 |----10----10----10-------10---|----10------10-8-x-10--x---|
 |-10-10----10----10-------10---|----10------10-6-x--8--x---|
 |--8---------------------------|---------------------------|

~~~~~~~~~~~~~~~~~~
a E Q E +H +E E a E E E E a E E
 
 |---------------------------|---------------------------------|
 |---------------------------|---------------11-11-11-------11-|
 |-8s10--8-------------------|---------10s12----------10s12----|
 |-----------10-(10)---------|-(10)----------------------------|
 |---------------------------|---------------------------------|
 |---------------------------|---------------------------------|

|
| E E E E E E E E E E E E E E E E
 
 |---------------------------|---------------------------------|
 |---------------------------|---------------------------------|
 |---------------------------|---------------------------------|
 |------10---10------10---10-|------10-------10--8--x----10--x-|
 |---10-10---10------10---10-|------10-------10--6--x-----8--x-|
 |----8----------------------|---------------------------------|
 |---3---| |---3---| |----3-----| |--3---|

E a E E E a E E E +E E E E E E E E E S S E E E
 
 |--------------------------------------|---8--------------------------------------------|
 |-11-------11-11-----------------------|-8------11-8-------8----------------------------|
 |----10s12-12-12-12s10--8-10b12==(10)r-|-------------10------8------10----10------8b8.5-|
 |--------------------------------------|-----------------------10------10----10---------|
 |--------------------------------------|------------------------------------------------|
 |--------------------------------------|------------------------------------------------|

|
| E E E E E E E E E E E E E E E E
 
 |--------------------------------------|------------------------------------------------|
 |--------------------------------------|------------------------------------------------|
 |--------------------------------------|------------------------------------------------|
 |-------10----10-------10---------10---|-----10---------10---8----x-------10----x-------|
 |-10----10----10-------10---------10---|-----10---------10---6----x--------8----x-------|
 |--8-----------------------------------|------------------------------------------------|

~
 
 |----3-----| |--3---|

E E S S E E E Q E E Q a E E E E E E
 
 |-----------------------------------|------------------------|
 |-----------------------------------|------------------------|
 |-----------------------------------|------------------------|
 |-10-------8h10---------------------|------------8-8---------|
 |----10---------10-9----8-6---------|------8s10------10--8-6-|
 |------------------------------8--6-|-8----------------------|

|
| E E E E E E E E E E E E E E E E
 
 |-----------------------------------|------------------------|
 |-----------------------------------|------------------------|
 |-----------------------------------|------------------------|
 |-------10-----------10-----10---10-|---10------10-8--x-10-x-|
 |-10----10-----------10-----10---10-|---10------10-6--x--8-x-|
 |--8--------------------------------|------------------------|

~~~
 
 |---3----| |----3----| |---3---| |3-|

E a Q. Q a E E E E E +E E E E E E E Q
 
 |---------------------------------|---------------------------------------------|
 |------------------------------11-|----11------------11-------11------11----11\-|
 |---------------8b8.5----10s12----|-12-------12-(12)-------12----12------12-----|
 |-10-8s10-------------------------|---------------------------------------------|
 |---------------------------------|---------------------------------------------|
 |---------------------------------|---------------------------------------------|

|
| E E E E E E E E E E E E E E E E
 
 |---------------------------------|---------------------------------------------|
 |---------------------------------|---------------------------------------------|
 |---------------------------------|---------------------------------------------|
 |------10----10-------10-------10-|-------10------------10-----8----x----10--x--|
 |-10---10----10-------10-------10-|-------10------------10-----6----x-----8--x--|
 |--8------------------------------|---------------------------------------------|
 |---3----| |---3----| |3-| |---3----| |---3---| |3-|

a E E E E E E E E E Q a E E E E E E E E E Q
 
 |-------------------------------------------|-----------------------------------------|
 |-------13----11-------11-------------11----|-------11----11-------11------11----11---|
 |-10s12----12-------12----12----12-12-------|-10s12----12-------12----12------12------|
 |-------------------------------------------|-----------------------------------------|
 |-------------------------------------------|-----------------------------------------|
 |-------------------------------------------|-----------------------------------------|

|
| E E E E E E E E E E E E E E E E
 
 |-------------------------------------------|-----------------------------------------|
 |-------------------------------------------|-----------------------------------------|
 |-------------------------------------------|-----------------------------------------|
 |-------10-------10----------10----------10-|-------10-------10-----8----x----10----x-|
 |----10-10-------10----------10----------10-|-------10-------10-----6----x-----8----x-|
 |-----8-------------------------------------|-----------------------------------------|
 |---3----| |---3----| |3-| |3-|

a E E E E E E E E E Q a E E E Q a E E E E
 
 |-------------------------------------------|----------------------------------|
 |-------11----11-------11-------11----11----|-------11----11-------------------|
 |-10s12----12-------12----12-------12-------|-10s12----12-------12s10-8--------|
 |-------------------------------------------|---------------------------10-8---|
 |-------------------------------------------|----------------------------------|
 |-------------------------------------------|----------------------------------|

|
| E E E E E E E E E E E E E E E E
 
 |-------------------------------------------|----------------------------------|
 |-------------------------------------------|----------------------------------|
 |-------------------------------------------|----------------------------------|
 |-------10-------10----------10----------10-|-------10-------10-----8-x-10-x---|
 |----10-10-------10----------10----------10-|-------10-------10-----6-x--8-x---|
 |-----8-------------------------------------|----------------------------------|

~~
 
 |---3----| |---3----| |3-| |3-|

H a E E E E E E E E E Q a E E E Q
 
 |---------------------------------|----------------------------------------|
 |------------------11----11-------|-11-------11----11----10s11-11----11\---|
 |------------10s12----12-------12-|----12-------12-------11s12----12-------|
 |-10------------------------------|----------------------------------------|
 |---------------------------------|----------------------------------------|
 |---------------------------------|----------------------------------------|

|
| E E E E E E E E E E E E E E E E
 
 |---------------------------------|----------------------------------------|
 |---------------------------------|----------------------------------------|
 |---------------------------------|----------------------------------------|
 |----10---10-------10-------10----|-------10----------10-----8--x-10-----x-|
 |-10-10---10-------10-------10----|-------10----------10-----6--x--8-----x-|
 |--8------------------------------|----------------------------------------|
 |---3----| |---3----| |3-| |3-| |---3----|

a E E E E E E E E E Q a E E E Q a E E +E E E
 
 |-------------------------------------------|--------------------------------------------|
 |-------11----11-------11-------11----11----|-------11----11----10s11-11-(11)-10s==11----|
 |-10s12----12-------12----12-------12-------|-10s12----12-------11s12---------11s==12----|
 |-------------------------------------------|--------------------------------------------|
 |-------------------------------------------|--------------------------------------------|
 |-------------------------------------------|--------------------------------------------|

|
| E E E E E E E E E E E E E E E E
 
 |-------------------------------------------|--------------------------------------------|
 |-------------------------------------------|--------------------------------------------|
 |-------------------------------------------|--------------------------------------------|
 |-------10-------10----------10----------10-|-------10-------10-----8--x--10-----x-------|
 |----10-10-------10----------10----------10-|-------10-------10-----6--x---8-----x-------|
 |-----8-------------------------------------|--------------------------------------------|

~~~~~~
 
 |3-| |----3----|

E E E Q a Q Q Q
 
 |-----------------------------------|
 |-11-10s11-11-----------------------|
 |----11s12-------12s10----8---------|
 |-----------------------------10----|
 |-----------------------------------|
 |-----------------------------------|

|
| E E E E E E E E
 
 |-----------------------------------|
 |-----------------------------------|
 |-----------------------------------|
 |----10-------10-------10--------10-|
 |-10-10-------10-------10--------10-|
 |--8--------------------------------|

Interlude
~~~~~~
+Q. E E E E E H. +Q W
 
 |-----------------------||---8----------(8)---|---------------|
 |---------------8-10----||--------------------|---------------|
 |-----------8-9-------9-||--------------------|---------------|
 |-(10)------------------||--------------------|---------------|
 |-----------------------||--------------------|---------------|
 |-----------------------||--------------------|---------------|

|
 
 | |-3--| |---3---| |-3-| |-3-|

| E E E E E E Q a Q Q Q Q Q Q Q Q Q Q Q Q
 
 |-----------------------||------5---5-------5-|---5---5---5---|
 |-----------------------||--------------------|---------------|
 |-------------9-x-10\---||--------------------|---------------|
 |------10-----8-x-10\---||-4s5----5---5-------|-4---4---4-----|
 |------10---------10\---||--------------------|---------------|
 |-----------8-----------||--------------------|---------------|
 |-3-| |-3-| |-3-| |-3-| |-3-| |-3-| |-3-|

Q Q Q Q Q Q E E E E E +H a Q Q Q Q Q Q Q Q Q Q Q Q
 
 |---5---5---5-|------------------|-----5---5---5-|---5---5---5--|
 |-------------|------------------|---------------|--------------|
 |-------------|---------2-(2)----|---------------|--------------|
 |-3---3---3---|---------2-(2)----|-4s5---5---5---|-4---4---4----|
 |-------------|-0-0-3h4----------|---------------|--------------|
 |-------------|------------------|---------------|--------------|
 |-3-| |-3-| |-3-| |-3-|

Q Q Q Q Q Q E E E E E +Q E E E E E E E E E E E E E Q E E E E
 
 |---5---5---5-|----------------------|-----------------|-----------------|
 |-------------|----------------------|-----------------|-----------------|
 |-------------|---------2-(2)--2-2-2-|-2-2---2---2---2-|---2-----2---5-2-|
 |-3---3---3---|---------2-(2)--2-2-2-|-2-2---2---2---2-|---2-----5---2---|
 |-------------|-0-0-3h4--------0-0-0-|-0---------------|-------0---0---0-|
 |-------------|----------------------|-----------------|-----------------|

Q E E E Q E
E E E E E E E E E E Q E E E E
 
 |--------------------|---------------------|
 |--------------------|---------------------|
 |--5b6-2---2---2---2-|---2-----2---5b5.5---|
 |--2---2---2---2---2-|---2-----5---2-------|
 |-(0)----------------|-------0---0-------0-|
 |--------------------|---------------------|

+E E Q H Q E E E Q E
E E E E E E E E E E Q E E E E
 
 |--------------------|---------------------|
 |--------------------|---------------------|
 |--5b6-2---2---2---2-|---2-----2---5b5.5---|
 |--2---2---2---2---2-|---2-----5---2-------|
 |-(0)----------------|-------0---0-------0-|
 |--------------------|---------------------|

+E E Q H Q E E E Q E
E E E E E E E E W E E E E E E E E
 
 |-------------------|----------|-----------------|
 |-------------------|----------|-----------------|
 |-5b6-2---2---2---2-|----------|-2-2---2---2---2-|
 |-2---2---2---2---2-|----------|-2-2---2---2---2-|
 |-0-----------------|----------|-0---------------|
 |-------------------|----------|-----------------|

E E Q H
E E E E Q E E E E E E E E E E E E E E Q E E
 
 |------------------|-----------------|-------------------||
 |------------------|-----------------|-------------------||
 |---2---2-(2)----2-|-2-2---2---2---2-|---2---2-(2)----2--||
 |---2---2-(2)----2-|-2-2---2---2---2-|---2---2-(2)----2--||
 |----------3---5---|-0---------------|----------3---5----||
 |------------------|-----------------|-------------------||

Outro
~~~
|--3--|
E E E E E H E Q. +Q E E
 
 |---------------------|--------------------------|
 |---------------------|--------------------------|
 |---x-----------------|---7b9======(7)r--5b5.5---|
 |---x-7-5---7---------|------------------------7-|
 |---x-----------------|--------------------------|
 |---------------------|--------------------------|

|
| Gtr II
| E E E E E E E E E E E E Q E E
 
 |---------------------|--------------------------|
 |---------------------|--------------------------|
 |-2-2-----2-----2---2-|---2------2-(2)---------2-|
 |-2-2-----2-----2---2-|---2------2-(2)---------2-|
 |-0-------------------|-------------3----5-------|
 |---------------------|--------------------------|

~~~~~
+W E Q. H
 
 |-------------------|-----------------------|
 |-------------------|---8b10------8b10------|
 |-------------------|-----------------------|
 |-(7)---------------|-----------------------|
 |-------------------|-----------------------|
 |-------------------|-----------------------|

|
| E E E E E E E E E E E E Q E E
 
 |-------------------|-----------------------|
 |-------------------|-----------------------|
 |--2--2---2---2---2-|---2------2-(2)------2-|
 |--2--2---2---2---2-|---2------2-(2)------2-|
 |--0----------------|-------------3-----5---|
 |-------------------|-----------------------|
 |---3----| |---3---|

E Q. +Q +E +E E E Q. +Q E +E E
 
 |------------------------------------|-----------------------------|
 |-[8]b10-8b10======(8)---(8)r(8)---5-|-8-8pb10======(8)--8r(8)p==5-|
 |------------------------------------|-----------------------------|
 |------------------------------------|-----------------------------|
 |------------------------------------|-----------------------------|
 |------------------------------------|-----------------------------|

|
| E E E E E E E E E E E E Q E E
 
 |------------------------------------|-----------------------------|
 |------------------------------------|-----------------------------|
 |--2-----2-------2-----2---------2---|---2--------2-(2)--------2---|
 |--2-----2-------2-----2---------2---|---2--------2-(2)--------2---|
 |--0---------------------------------|---------------3---5---------|
 |------------------------------------|-----------------------------|

~~~~~~~~~~~~~
 
 |-----3-----| |------3------|

Q Q Q Q Q Q H +E E Q
 
 |-----------------------------------------|-------------------------|
 |-[8]-------------------------------------|-------------------------|
 |-------7b9---[7]---[5]b6---[7]---[5]b7---|-----------------7b9=====|
 |-----------------------------------------|-[7]-------(7)-7---------|
 |-----------------------------------------|-------------------------|
 |-----------------------------------------|-------------------------|

|
| E E E E E E E E E E E E Q E E
 
 |-----------------------------------------|-------------------------|
 |-----------------------------------------|-------------------------|
 |--2--2-----------2-------2-------------2-|-----2---2-(2)--------2--|
 |--2--2-----------2-------2-------------2-|-----2---2-(2)--------2--|
 |--0--------------------------------------|------------3----5-------|
 |-----------------------------------------|-------------------------|

|3-|
Q e e E Q e e +Q E E +Q E E
 
 |--------------------------------|------------------------------------|
 |-------5-8----------------------|------------------------------------|
 |--7r---------[7]b9---[7]-[5]b7==|=(5)r---[5]b6----------[5]b6-[7]b9==|
 |--------------------------------|--------------[7]-(7)---------------|
 |--------------------------------|------------------------------------|
 |--------------------------------|------------------------------------|

|
| E E E E E E E E E E E E Q E E
 
 |--------------------------------|------------------------------------|
 |--------------------------------|------------------------------------|
 |-(2)-2---2---------2------2-----|------2--------2--(2)---------2-----|
 |-(2)-2---2---------2------2-----|------2--------2--(2)---------2-----|
 |--0-----------------------------|-------------------3----5-----------|
 |--------------------------------|------------------------------------|
 |------3-------| |-------3-------|

+Q Q Q Q Q Q Q Q E +E E E
 
 |------------------------------------------------|--------------------------------|
 |------------------------------------------------|--------------------------------|
 |-(7)r---[7]b9---[7]b9---[7]b9---[7]b9---[7]b9---|-[7]b9---[5]---[5]b7==(5)r------|
 |------------------------------------------------|---------------------------7-5--|
 |------------------------------------------------|--------------------------------|
 |------------------------------------------------|--------------------------------|

|
| E E E E E E E E E E E E Q E E
 
 |------------------------------------------------|--------------------------------|
 |------------------------------------------------|--------------------------------|
 |-(2)--2---------------2-------2---------------2-|-------2-----2-(2)-----------2--|
 |-(2)--2---------------2-------2---------------2-|-------2-----2-(2)-----------2--|
 |--0---------------------------------------------|----------------3----------5----|
 |------------------------------------------------|--------------------------------|

~~~
 
 |--3---| |3| |--3---|

H Q E Q e E +H E +E E E E
 
 |------------------------------|--------------------------------|
 |------------------------------|--------------------------------|
 |---------5b7-----7---5-[7]b9==|=([7])--------7r=(7)p5-7-[5]b7==|
 |--7---------------------------|--------------------------------|
 |------------------------------|--------------------------------|
 |------------------------------|--------------------------------|

|
| E E E E E E E E E E E E Q E E
 
 |------------------------------|--------------------------------|
 |------------------------------|--------------------------------|
 |-(2)-2-------2-----2----2-----|-------2---2-(2)----------2-----|
 |-(2)-2-------2-----2----2-----|-------2---2-(2)----------2-----|
 |--0---------------------------|--------------3--------5--------|
 |------------------------------|--------------------------------|

~~~~~~~~~~~~~~~
 
 |----3----|

+Q +E E +H +Q a E E E +Q +E E
 
 |---------------------------|--------------------------------------|
 |---------------------------|-----------8-[10]b12==([10])r([10])p8-|
 |-([5])r==([5])-------------|-------7s9----------------------------|
 |---------------7-(7)-------|-(7)----------------------------------|
 |---------------------------|--------------------------------------|
 |---------------------------|--------------------------------------|

|
| E E E E E E E E E E E E Q E E
 
 |---------------------------|--------------------------------------|
 |---------------------------|--------------------------------------|
 |--(2)--2-------2-----2---2-|-----2-----2--(2)-------------------2-|
 |--(2)--2-------2-----2---2-|-----2-----2--(2)-------------------2-|
 |---0-----------------------|---------------3----------------5-----|
 |---------------------------|--------------------------------------|

~~~~~~~ ~~~~~~~~
 
 |--3---| |--3--|

e e E E +Q E +Q +Q E E +Q E E E
 
 |--------------------8b10==(8)---|-(8)r---8b8.5--------------------|
 |--8--10---10-(10)---------------|--------------[10]-(10)----------|
 |--------------------------------|-------------------------7s8s==9-|
 |--------------------------------|---------------------------------|
 |--------------------------------|---------------------------------|
 |--------------------------------|---------------------------------|

|
| E E E E E E E E E E E E Q E E
 
 |--------------------------------|---------------------------------|
 |--------------------------------|---------------------------------|
 |-(2)--2----2------2-----------2-|------2---------2---(2)------2---|
 |-(2)--2----2------2-----------2-|------2---------2---(2)------2---|
 |--0-----------------------------|---------------------3---5-------|
 |--------------------------------|---------------------------------|
 |----3-----| |--------3--------| |-3--| |--3--|

Q a Q Q Q Q Q Q. +E E E E E E E
 
 |-----------------------------------------|---------------------------5--|
 |--8--------------------------------------|---------------------8p7------|
 |-------9s7---5---[7]b8---[7]b7.5---[5]---|-------------------5----------|
 |-----------------------------------------|-[7]-----(7)--4h=7------------|
 |-----------------------------------------|------------------------------|
 |-----------------------------------------|------------------------------|

|
| E E E E E E E E E E E E Q E E
 
 |-----------------------------------------|------------------------------|
 |-----------------------------------------|------------------------------|
 |-(2)-2---------2-------2---------------2-|-----2----2--(2)---------2----|
 |-(2)-2---------2-------2---------------2-|-----2----2--(2)---------2----|
 |--0--------------------------------------|--------------3------5--------|
 |-----------------------------------------|------------------------------|
 |-----3------|

q E +E E +E Q E E E +E E a Q E E
 
 |-----------------------------------|--------------------------------------|
 |--7----5b5.5-(5)-------------------|--------------------------------------|
 |-----------------[7]b9-([7])-5b7---|--------------------------------------|
 |-----------------------------------|-7p5-[5]b7-([5])---7--------------[7]-|
 |-----------------------------------|---------------------7s=5---[3]b4-----|
 |-----------------------------------|--------------------------------------|

|
| E E E E E E E E E E E E Q E E
 
 |-----------------------------------|--------------------------------------|
 |-----------------------------------|--------------------------------------|
 |-(2)-2--------2----------2-------2-|---2-------------2-----(2)---------2--|
 |-(2)-2--------2----------2-------2-|---2-------------2-----(2)---------2--|
 |--0--------------------------------|------------------------3----5--------|
 |-----------------------------------|--------------------------------------|
 |------3------|

E +E E +E E E Q Q E E E +E +E E E
 
 |---------------------------------------|------------------------------------------------|
 |---------------------------------------|------------------------------------------------|
 |---------------------------------------|-------[5]b6-----[7]b9==([7])r([7])-[5]b5.5-----|
 |---------------------------------------|-[7]---------[7]----------------------------[7]-|
 |-[5]b7-(5)-[3]b5-(3)-[5]b5.5p3-[3]b4---|------------------------------------------------|
 |---------------------------------------|------------------------------------------------|

|
| E E E E E E E E E E E E Q E E
 
 |---------------------------------------|------------------------------------------------|
 |---------------------------------------|------------------------------------------------|
 |-(2)----2---------2----------2-------2-|-----2--------2--(2)-------------------------2--|
 |-(2)----2---------2----------2-------2-|-----2--------2--(2)-------------------------2--|
 |--0------------------------------------|------------------3------------------5----------|
 |---------------------------------------|------------------------------------------------|
 |---3----| |---3----|

E E E E E E E E E +e E +e E +e E +e E +e
 
 |---------------------------------------------|-------------------------------------------------|
 |---------------------------------------------|-------------------------------------------------|
 |-[7]-[7]p==6-[7]-[7]p==x-5b5.5---[7]b9==(7)r-|-[7]b9==(7)r-[7]b9==(7)r-[7]b9==(7)r-[7]b9==(7)r-|
 |-------------------------5b5.5---------------|-------------------------------------------------|
 |---------------------------------------------|-------------------------------------------------|
 |---------------------------------------------|-------------------------------------------------|

|
| E E E E E E E E E E E E Q E E
 
 |---------------------------------------------|-------------------------------------------------|
 |---------------------------------------------|-------------------------------------------------|
 |-(2)-----2-----------2---------2---------2---|---------2-----------2---(2)-----------------2---|
 |-(2)-----2-----------2---------2---------2---|---------2-----------2---(2)-----------------2---|
 |--0------------------------------------------|--------------------------3-----------5----------|
 |---------------------------------------------|-------------------------------------------------|

E +e E +e E +e E +e E +e E +e E +e E +e
 
 |-------------------------------------------------|-------------------------------------------------|
 |-------------------------------------------------|-------------------------------------------------|
 |-[7]b9==(7)r-[7]b9==(7)r-[7]b9==(7)r-[7]b9==(7)r-|-[7]b9==(7)r-[7]b9==(7)r-[7]b9==(7)r-[7]b9==(7)r-|
 |-------------------------------------------------|-------------------------------------------------|
 |-------------------------------------------------|-------------------------------------------------|
 |-------------------------------------------------|-------------------------------------------------|

|
| E E E E E E E E E E E E Q E E
 
 |-------------------------------------------------|-------------------------------------------------|
 |-------------------------------------------------|-------------------------------------------------|
 |-(2)-----2-----------2-----------2-----------2---|---------2-----------2---(2)-----------------2---|
 |-(2)-----2-----------2-----------2-----------2---|---------2-----------2---(2)-----------------2---|
 |--0----------------------------------------------|--------------------------3-----------5----------|
 |-------------------------------------------------|-------------------------------------------------|

E +e Q Q Q Q Q Q E E
 
 |------------------------------------|------------------------------|
 |------------------------------------|------------------------------|
 |--7b9==(7)r-[7]b9---[7]b9---[7]b9---|-[7]b9---7b9---[7]b9--[7]b9-5-|
 |------------------------------------|------------------------------|
 |------------------------------------|------------------------------|
 |------------------------------------|------------------------------|

|
| E E E E E E E E E E E E Q E E
 
 |------------------------------------|------------------------------|
 |------------------------------------|------------------------------|
 |-(2)----2---------2-------2-------2-|-------2-----2-(2)----------2-|
 |-(2)----2---------2-------2-------2-|-------2-----2-(2)----------2-|
 |--0---------------------------------|----------------3------5------|
 |------------------------------------|------------------------------|

~ ~~ ~~~~~~~~~
|--3--|
Q H E E E E a Q E Q Q
 
 |-----------------------|-5------------------------|
 |---------------------5-|---8s10---10-10---[10]----|
 |---------------5h6-----|--------------------------|
 |-[7]---7---------------|--------------------------|
 |-----------------------|--------------------------|
 |-----------------------|--------------------------|

|
| E E E E E E E E E E E E Q E E
 
 |-----------------------|--------------------------|
 |-----------------------|--------------------------|
 |-(2)-2---2---2-----2---|------2----2-(2)-------2--|
 |-(2)-2---2---2-----2---|------2----2-(2)-------2--|
 |--0--------------------|--------------3-----5-----|
 |-----------------------|--------------------------|

~~~~~~
 
 |-3--| |--3--|

H Q Q Q Q E E E E E E
 
 |--------------------------------|-5---5-------------------|
 |-[8]b10-------[8]b10---[8]b10---|----------8p=5-----------|
 |--------------------------------|---------------7-5h7p==5-|
 |--------------------------------|-------------------------|
 |--------------------------------|-------------------------|
 |--------------------------------|-------------------------|

|
| E E E E E E E E E E E E Q E E
 
 |--------------------------------|-------------------------|
 |--------------------------------|-------------------------|
 |-(2)----2---2--------2--------2-|---2---2-(2)---------2---|
 |-(2)----2---2--------2--------2-|---2---2-(2)---------2---|
 |--0-----------------------------|----------3------5-------|
 |--------------------------------|-------------------------|

~~~ ~~~~
|--3--|
H. E E E E E E E E E E E
 
 |-----------------------|-5-----------------5--|
 |---------------------5-|-5-8-8-8--8p=5-----5--|
 |---------------5h6-----|---------------7b9----|
 |--7--------------------|----------------------|
 |-----------------------|----------------------|
 |-----------------------|----------------------|

|
| E E E E E E E E E E E E Q E E
 
 |-----------------------|----------------------|
 |-----------------------|----------------------|
 |-(2)-2---2---2-----2---|---2---2-(2)-------2--|
 |-(2)-2---2---2-----2---|---2---2-(2)-------2--|
 |--0--------------------|----------3----5------|
 |-----------------------|----------------------|
 |---3----| |-3--|

Q +E E E +E E E E +Q E E E E E Q
 
 |-/8---(8)\-----/8-(8)-----------|-----------------------|
 |-/8---(8)\-----/8-(8)---7-5-----|-(5)-------------------|
 |-/9---(9)\-----/9-(9)-7-7-5b5.5-|-(5)-------------------|
 |------------------------7-------|-------7-5-------------|
 |--------------------------------|------------7--6-5-3---|
 |--------------------------------|-----------------------|

|
| E E E E E E E E E E E E Q E E
 
 |--------------------------------|-----------------------|
 |--------------------------------|-----------------------|
 |--2-2--------2--------2---2-----|-----2---2-(2)-------2-|
 |--2-2--------2--------2---2-----|-----2---2-(2)-------2-|
 |--0-----------------------------|------------3------5---|
 |--------------------------------|-----------------------|

e Q +E Q a E E E E +E E E E E E
 
 |-----/8---(8)\-/8-----------|-------------5-------------------|
 |-----/8---(8)\-/8-----------|-----------------8---------------|
 |-----/9---(9)\-/9---9s7-[5]-|-5-7b9==(7)-(7)-(7)r(7)p5-[7]b9==|
 |-/7-------------------------|---------------------------------|
 |----------------------------|---------------------------------|
 |----------------------------|---------------------------------|

|
| E E E E E E E E E E E E Q E E
 
 |----------------------------|---------------------------------|
 |----------------------------|---------------------------------|
 |-(2)--2----2------2------2--|---2---------2--(2)--------2-----|
 |-(2)--2----2------2------2--|---2---------2--(2)--------2-----|
 |--0-------------------------|-----------------3------5--------|
 |----------------------------|---------------------------------|

~
 
 |-------3-------|

E E +Q Q E E Q Q Q Q E E
 
 |-----------------------------------------|------------------------------------|
 |-----------------------------------------|------------------------------------|
 |--7r-[7]b9-([7])b9---[7]b9---[7]b9-[7]b9-|-[7]b9---[7]b9---[7]b9---[7]b9--5---|
 |-----------------------------------------|----------------------------------7-|
 |-----------------------------------------|------------------------------------|
 |-----------------------------------------|------------------------------------|

|
| E E E E E E E E E E E E Q E E
 
 |-----------------------------------------|------------------------------------|
 |-----------------------------------------|------------------------------------|
 |-(2)--2------------2-------2--------2----|-------2---------------2-(2)------2-|
 |-(2)--2------------2-------2--------2----|-------2---------------2-(2)------2-|
 |--0--------------------------------------|--------------------------3-----5---|
 |-----------------------------------------|------------------------------------|

~~~~~~~~~~~~~
|--3--|
+Q E E E a E E E E Q. E +Q E E
 
 |-------------------------|-----------------7s==|
 |-------------------------|-----------------7s==|
 |-------------------------|-----------------8s==|
 |-(7)---------5-----------|-7------7-(7)--------|
 |-------5h7-----7s5-3h5-3-|---------------------|
 |-------------------------|---------------------|

|
| E E E E E E E E E E E E Q E E
 
 |-------------------------|---------------------|
 |-------------------------|---------------------|
 |-(2)-2-----2---

Important: The song above is NOT stored on the Chordie server. The original song is hosted at www.guitaretab.com. Chordie works as a search engine and provides on-the-fly formatting. Chordie does not index songs against artists'/composers' will. To remove this song please click here.

Text color:
Chord color:
Chord grids: 
Font size:    
Page size: 

E
Rate #1 of 3 versions

Jango Player

Login - add to songbook

SHARE PAGE  




You need to log in to post comments