Guitar Tabs, Chords and Lyrics
Major upgrade!! After one year development the new version of Chordie is now online! Please give feedback.


Heard It on the X  ZZ Top

HEARD IT ON THE X
As recorded by Z Z Top
(From the 1979 Album FANDANGO! )
Words and Music by Billy Gibbson,Dusty Hill and Frank Beard
Transcribed by Tone Jones
N.C. A5 C5 G5
0 0 0 0 0 0 x 0 2 2 x x x x 5 5 x x x x 0 0 x x
x x [D5]7 7 x x x x [F5]3 5 x x 0 x [E5]x x x x
Gtr I (E A D G B E) - 'Distortion Gtr'
Gtr II (E A D G B E) - 'Distortion Gtr'
Gtr III (E A D G B E) - 'Overdriven Gtr (Solo)'
Intro
Fast Blues Rock Q=228
[A5] [C5A5] [G5] [C5A5] [G5] 
[4/4] Gtrs I, II
PM PM PM PM
H Q Q E E E E E E E E E E E E E E E E
 
 |------------||------------------|-----------------|
 |------------||o-----------------|-----------------|
 |------2-----||--5p2---2---2p0---|-5p2---2---2p0---|
 |------2-----||--5p2---2---2p0---|-5p2---2---2p0---|
 |------0-----||o-----0-----------|-----0-----------|
 |------------||----------------3-|---------------3-|

[C5A5] PM [G5] PM [D5C5] PM[G5]
E E E E E E E E E E E E +E Q.
 
 |-----------------|--------------------||
 |-----------------|-------------------o||
 |-5p2---2---2p0---|-7p5---5-(5)-0------||
 |-5p2---2---2p0---|-7p5---5-(5)-0------||
 |-----0-----------|-----0-------------o||
 |---------------3-|--------------------||

Verse
[C5A5] PM [G5] PM [C5A5] PM [G5] PM [C5A5] PM [G5] PM [D5C5] PM[G5]
E E E E E E E E E E E E E E E E E E E E E E E E E E E E +E Q.
 
 ||------------------|-----------------|-----------------|-------------------|
 ||o-----------------|-----------------|-----------------|-------------------|
 ||--5p2---2---2p0---|-5p2---2---2p0---|-5p2---2---2p0---|-7p5---5-(5)-0-----|
 ||--5p2---2---2p0---|-5p2---2---2p0---|-5p2---2---2p0---|-7p5---5-(5)-0-----|
 ||o-----0-----------|-----0-----------|-----0-----------|-----0-------------|
 ||----------------3-|---------------3-|---------------3-|-------------------|

[C5A5] PM [G5] PM [C5A5] PM [G5] PM [C5A5] PM [G5] PM [D5C5] PM[G5]
E E E E E E E E E E E E E E E E E E E E E E E E E E E E +E Q.
 
 |-----------------|-----------------|-----------------|------------------|
 |-----------------|-----------------|-----------------|------------------|
 |-5p2---2---2p0---|-5p2---2---2p0---|-5p2---2---2p0---|-7p5---5-(5)-0----|
 |-5p2---2---2p0---|-5p2---2---2p0---|-5p2---2---2p0---|-7p5---5-(5)-0----|
 |-----0-----------|-----0-----------|-----0-----------|-----0------------|
 |---------------3-|---------------3-|---------------3-|------------------|

[C5A5] PM [G5] PM [C5A5] PM [G5] PM [C5A5] PM [G5] PM [D5C5] PM[G5]
E E E E E E E E E E E E E E E E E E E E E E E E E E E E +E Q.
 
 |-----------------|-----------------|-----------------|------------------|
 |-----------------|-----------------|-----------------|------------------|
 |-5p2---2---2p0---|-5p2---2---2p0---|-5p2---2---2p0---|-7p5---5-(5)-0----|
 |-5p2---2---2p0---|-5p2---2---2p0---|-5p2---2---2p0---|-7p5---5-(5)-0----|
 |-----0-----------|-----0-----------|-----0-----------|-----0------------|
 |---------------3-|---------------3-|---------------3-|------------------|

[C5A5] PM [G5] PM [C5A5] PM [G5] PM [C5A5] PM [G5] [D5C5A5C5] PM
E E E E E E E E E E E E E E E E E E E E +E Q. E E E E +E E E E
 
 |-----------------|-----------------|------------------|-------------------|
 |-----------------|-----------------|------------------|-------------------|
 |-5p2---2---2p0---|-5p2---2---2p0---|-7p5---5-(5)-0----|-7p5---5-(5)-------|
 |-5p2---2---2p0---|-5p2---2---2p0---|-7p5---5-(5)-0----|-7p5---5-(5)-------|
 |-----0-----------|-----0-----------|-----0------------|-----0-------------|
 |---------------3-|---------------3-|------------------|-------------x-3-2-|

N.CD5 F5 D5 N.C. E5 G5 E5
Gtr I
~
Q H Q Q. E +Q E E Q H Q Q E E +E E Q
 
 |------------|------------------|------------|------------------------||
 |----3----3--|-------3-(3)------|------------|------------------------||
 |----2----2--|-------2-(2)------|------------|------------------------||
 |----0----0--|-3-----0-(0)--0-1-|-2----------|----------2-------2-----||
 |------------|------------------|------------|------------------------||
 |-0----------|------------------|----0----0--|-3b3.5------0-(0)---0---||

|
| Gtr II
| ~
| Q H Q Q. E +Q E E Q H Q Q a E E +E E Q
 
 |------------|------------------|------------|-3b3.5------0-(0)-------||
 |----3----3--|-5b6---3-(3)------|------------|-3b3.5--4---0-(0)-------||
 |----2----2--|-4b5---2-(2)------|------------|------------------0-----||
 |----0----0--|-------0-(0)--0-1-|-2----------|----------2-------------||
 |------------|------------------|------------|------------------------||
 |-0----------|------------------|----0----0--|--------------------0---||

Chorus
[C5]~~ [G5] [C5]~~ [G5] [C5]~~ [G5] PM[A5]
Q. E +H Q. E H Q. E +E E Q +H +E E E E
 
 |-----------------|-----------------|-----------------|------------------|
 |-----------------|-----------------|-----------------|------------------|
 |-5----0-(0)------|-5----0----------|-5----0-(0)---2--|-(2)----(2)-------|
 |-5----0-(0)------|-5----0----------|-5----0-(0)---2--|-(2)----(2)-2-----|
 |-----------------|-----------------|-----------------|------------------|
 |-----------------|-----------------|------------3----|--------------3-0-|

|
| ~~ PM ~~ PM ~~ PM
| Q. E +E E Q Q. E +E E Q Q. E +E E Q +H +E E E E
 
 |-----------------|-----------------|-----------------|------------------|
 |-----------------|-----------------|-----------------|------------------|
 |-5----0-(0)---0--|-5----0-(0)---0--|-5----0-(0)---2--|-(2)----(2)-------|
 |-5----0-(0)---0--|-5----0-(0)---0--|-5----0-(0)---2--|-(2)----(2)-2-----|
 |-----------------|-----------------|-----------------|------------------|
 |------------3----|------------3----|------------3----|--------------3-0-|

1.
C5 G5 C5 G5 C5 G5 A5 N.C.
~~ ~~ T ~~ PM
Q. E H Q. E H Q. E +E E Q +Q Q Q Q
 
 |-----------------|-----------------|-----------------|---------------||
 |-----------------|-----------------|-----------------|---------------||
 |-5----0----------|-5----0-------|-5----0-(0)---2--|-(2)-----------||
 |-5----0----------|-5----0-------|-5----0-(0)---2--|-(2)-----------||
 |-----------------|-----------------|-----------------|---------------||
 |-----------------|-----------------|------------3----|------0--3--4--||

|
| ~~ PM ~~ PM ~~ PM
| Q. E +E E Q Q. E +E E Q Q. E +E E Q +Q Q Q Q
 
 |-----------------|-----------------|-----------------|---------------||
 |-----------------|-----------------|-----------------|---------------||
 |-5----0-(0)---0--|-5----0-(0)---0--|-5----0-(0)---2--|-(2)-----------||
 |-5----0-(0)---0--|-5----0-(0)---0--|-5----0-(0)---2--|-(2)-----------||
 |-----------------|-----------------|-----------------|---------------||
 |------------3----|------------3----|------------3----|------0--3--4--||

Interlude
[C5A5] PM [G5] PM [C5A5] PM [G5] PM [C5A5] PM [G5] PM [D5C5] PM[G5]
E E E E E E E E E E E E E E E E E E E E E E E E E E E E +E Q.
 
 |-----------------|-----------------|-----------------|-------------------||
 |-----------------|-----------------|-----------------|------------------o||
 |-5p2---2---2p0---|-5p2---2---2p0---|-5p2---2---2p0---|-7p5---5-(5)-0-----||
 |-5p2---2---2p0---|-5p2---2---2p0---|-5p2---2---2p0---|-7p5---5-(5)-0-----||
 |-----0-----------|-----0-----------|-----0-----------|-----0------------o||
 |---------------3-|---------------3-|---------------3-|-------------------||

2.
[C5]~~ [G5] PM[A5]
Q. E +E E q H q Q
 
 |-----------------|------------||
 |-----------------|------------||
 |-2----0-(0)---2--|------2-----||
 |-2----0-(0)---2--|------2-----||
 |-----------------|------------||
 |------------3----|------------||

Guitar Solo
[C5]Gtr[A5] III[G5] [C5] [A5] [G5]
~~~~~~~~~~~~~~~~~~~~~~~~~~~~~~~~~~~~~~~~~~~~~
Q. E +Q Q +E Q. H
 
 |-----------------------|----------------------|
 |-----------------------|----------------------|
 |-14-----14-(14)---14---|-(14)14------14-------|
 |-----------------------|----------------------|
 |-----------------------|----------------------|
 |-----------------------|----------------------|

|
| Gtrs I, II
| PM PM PM PM
| E E E E E E E E E E E E E E E E
 
 |-----------------------|----------------------|
 |-----------------------|----------------------|
 |--5p2----2------2p=0---|---5p=2----2----2p0---|
 |--5p2----2------2p=0---|---5p=2----2----2p0---|
 |------0----------------|---------0------------|
 |---------------------3-|--------------------3-|

~[C5]~~~~~~~[A5]~~~~~~~~~~[G5]~~~[D5] [C5] [G5]
Q. E +Q Q a Q E a E +H
 
 |-----------------------|----------------------------|
 |-----------------------|-12s13------12s13-(13)------|
 |-14-----14-(14)---14---|---------14-----------------|
 |-----------------------|----------------------------|
 |-----------------------|----------------------------|
 |-----------------------|----------------------------|

|
| PM PM PM
| E E E E E E E E E E E E +E Q.
 
 |-----------------------|----------------------------|
 |-----------------------|----------------------------|
 |--5p2----2------2p=0---|-----7p5--------5--(5)-0----|
 |--5p2----2------2p=0---|-----7p5--------5--(5)-0----|
 |------0----------------|----------0-----------------|
 |---------------------3-|----------------------------|

[C5] ~~~~~~[A5]~~~~~~~~~~[G5]~~~~~~~[C5]~~~~[A5]~~~~~~~~~~~~~[G5]~~~~~
Q. E +Q Q +E Q. H
 
 |-----------------------|----------------------|
 |-----------------------|----------------------|
 |-14-----14-(14)---14---|-(14)14------14-------|
 |-----------------------|----------------------|
 |-----------------------|----------------------|
 |-----------------------|----------------------|

|
| PM PM PM PM
| E E E E E E E E E E E E E E E E
 
 |-----------------------|----------------------|
 |-----------------------|----------------------|
 |--5p2----2------2p=0---|---5p=2----2----2p0---|
 |--5p2----2------2p=0---|---5p=2----2----2p0---|
 |------0----------------|---------0------------|
 |---------------------3-|--------------------3-|

~[C5]~~~~~~~[A5]~~~~~~~~~~[G5]~~~[D5] [C5] [G5]
Q. E +Q Q a Q E a E +H
 
 |-----------------------|----------------------------|
 |-----------------------|-12s13------12s13-(13)------|
 |-14-----14-(14)---14---|---------14-----------------|
 |-----------------------|----------------------------|
 |-----------------------|----------------------------|
 |-----------------------|----------------------------|

|
| PM PM PM
| E E E E E E E E E E E E +E Q.
 
 |-----------------------|----------------------------|
 |-----------------------|----------------------------|
 |--5p2----2------2p=0---|-----7p5--------5--(5)-0----|
 |--5p2----2------2p=0---|-----7p5--------5--(5)-0----|
 |------0----------------|----------0-----------------|
 |---------------------3-|----------------------------|

[C5] ~~~~~~[A5]~~~~~~~~~~[G5]~~~~~~~[C5]~~~~[A5]~~~~~~~~~~~~~[G5]~~~~~
Q. E +Q Q +E Q. H
 
 |-----------------------|----------------------|
 |-----------------------|----------------------|
 |-14-----14-(14)---14---|-(14)14------14-------|
 |-----------------------|----------------------|
 |-----------------------|----------------------|
 |-----------------------|----------------------|

|
| PM PM PM PM
| E E E E E E E E E E E E E E E E
 
 |-----------------------|----------------------|
 |-----------------------|----------------------|
 |--5p2----2------2p=0---|---5p=2----2----2p0---|
 |--5p2----2------2p=0---|---5p=2----2----2p0---|
 |------0----------------|---------0------------|
 |---------------------3-|--------------------3-|

~[C5]~~~~~~~[A5]~~~~~~~~~~[G5]~~~[D5] [C5] [G5]
Q. E +Q Q a Q E a E +H
 
 |-----------------------|----------------------------|
 |-----------------------|-17s13------12s13-(13)------|
 |-14-----14-(14)---14---|---------14-----------------|
 |-----------------------|----------------------------|
 |-----------------------|----------------------------|
 |-----------------------|----------------------------|

|
| PM PM PM
| E E E E E E E E E E E E +E Q.
 
 |-----------------------|----------------------------|
 |-----------------------|----------------------------|
 |--5p2----2------2p=0---|-----7p5--------5--(5)-0----|
 |--5p2----2------2p=0---|-----7p5--------5--(5)-0----|
 |------0----------------|----------0-----------------|
 |---------------------3-|----------------------------|

[C5] ~~~~~~[A5]~~~~~~~~~~[G5]~~~~~~~[C5]~~~~[A5]~~~~~~~~~~~~~[G5]~~~~~
Q. E +Q Q +E Q. H
 
 |-----------------------|----------------------|
 |-----------------------|----------------------|
 |-14-----14-(14)---14---|-(14)14------14-------|
 |-----------------------|----------------------|
 |-----------------------|----------------------|
 |-----------------------|----------------------|

|
| PM PM PM PM
| E E E E E E E E E E E E E E E E
 
 |-----------------------|----------------------|
 |-----------------------|----------------------|
 |--5p2----2------2p=0---|---5p=2----2----2p0---|
 |--5p2----2------2p=0---|---5p=2----2----2p0---|
 |------0----------------|---------0------------|
 |---------------------3-|--------------------3-|

~[C5]~~~~~~~[A5]~~~~~~~~~~[G5]~~~[D5C5] [G5]
Q. E +Q Q Q. E Q Q
 
 |-----------------------|---------------------|
 |-----------------------|-17S====10s=x\-------|
 |-14-----14-(14)---14---|---------------------|
 |-----------------------|---------------------|
 |-----------------------|---------------------|
 |-----------------------|---------------------|

|
| PM PM PM
| E E E E E E E E E E E E +E E E E
 
 |-----------------------|---------------------|
 |-----------------------|---------------------|
 |--5p2----2------2p=0---|--7p5----5-(5)-------|
 |--5p2----2------2p=0---|--7p5----5-(5)-------|
 |------0----------------|------0--------------|
 |---------------------3-|---------------x-3-2-|

N.CD5 F5 D5 N.C. E5 G5 E5
Gtr III
~~~~~~ ~ ~~~~~~
Q H Q E Q E +H Q H Q E Q E +H
 
 |-------------|-------------------|------------|----------------------|
 |-------------|-6s==5--7-(7)------|----9----9--|-8s====7---9-(9)------|
 |----/7----7--|--------7-(7)------|----9----9--|-----------9-(9)------|
 |----/7----7--|--------7-(7)------|----9----9--|-----------9-(9)------|
 |-------------|-------------------|------------|----------------------|
 |-------------|-------------------|------------|----------------------|

|
| Gtr I
| ~
| Q H Q Q. E +Q E E Q H Q Q E E +E E Q
 
 |-------------|-------------------|------------|----------------------|
 |-----3----3--|--------3-(3)------|------------|----------------------|
 |-----2----2--|--------2-(2)------|------------|----------------------|
 |-----0----0--|-3------0-(0)--0-1-|-2----------|---------2-------2----|
 |-------------|-------------------|------------|----------------------|
 |-0-----------|-------------------|----0----0--|-3b3.5-----0-(0)---0--|

|
| Gtr II
| ~
| Q H Q Q. E +Q E E Q H Q Q E E +E E Q
 
 |-------------|-------------------|------------|----------------------|
 |-----3----3--|-5b6----3-(3)------|------------|----------------------|
 |-----2----2--|-4b5----2-(2)------|------------|----------------------|
 |-----0----0--|--------0-(0)--0-1-|-2----------|---------2-------2----|
 |-------------|-------------------|------------|----------------------|
 |-0-----------|-------------------|----0----0--|-3b3.5-----0-(0)---0--|

[C5] [G5] [C5] [G5] [C5] ~~~ [G5] [A5] ~~~~~~~~~
Q. E +E E Q Q. E +E E Q Q. E +Q Q +H. Q
 
 |------------------|------------------|-------------------|------------------|
 |-/5----0-(0)------|-/5----0-(0)------|-/5----0-(0)---/2--|-(2)--------------|
 |-/5----0-(0)-2-0--|-/5----0-(0)-2-0--|-/5----0-(0)---/2--|-(2)--------------|
 |-------------2-0--|-------------2-0--|-------------------|------------------|
 |------------------|------------------|-------------------|------------------|
 |------------------|------------------|-------------------|--------------3---|

|
| ~~~ ~~~ ~~~ PM
| Q. E +H Q. E H Q. E +E E Q +H +E E E E
 
 |------------------|------------------|-------------------|------------------|
 |------------------|------------------|-------------------|------------------|
 |--5----0-(0)------|--5----0----------|--5----0-(0)----2--|-(2)----(2)-------|
 |--5----0-(0)------|--5----0----------|--5----0-(0)----2--|-(2)----(2)-2-----|
 |------------------|------------------|-------------------|------------------|
 |------------------|------------------|-------------3-----|--------------3-0-|

|
| ~~~ PM ~~~ PM ~~~ PM
| Q. E +E E Q Q. E +E E Q Q. E +E E Q +H +E E E E
 
 |------------------|------------------|-------------------|------------------|
 |------------------|------------------|-------------------|------------------|
 |--5----0-(0)---0--|--5----0-(0)---0--|--5----0-(0)----2--|-(2)----(2)-------|
 |--5----0-(0)---0--|--5----0-(0)---0--|--5----0-(0)----2--|-(2)----(2)-2-----|
 |------------------|------------------|-------------------|------------------|
 |-------------3----|-------------3----|-------------3-----|--------------3-0-|

[C] [G] [C] [G] [C] ~~~[G] [A]
Q. E +E E Q Q. E +E E Q Q. E +Q q
 
 |------------------|------------------|-------------------||
 |-/5----0-(0)------|-/5----0-(0)------|-/5----0-(0)---/2--||
 |-/5----0-(0)-2-0--|-/5----0-(0)-2-0--|-/5----0-(0)----2--||
 |-------------2-0--|-------------2-0--|-------------------||
 |------------------|------------------|-------------------||
 |------------------|------------------|-------------------||

|
| Gtrs I, II
| ~~~ PM ~~~ PM ~~~ PM
| Q. E +E E Q Q. E +E E Q Q. E +E E q
 
 |------------------|------------------|-------------------||
 |------------------|------------------|-------------------||
 |--5----0-(0)---0--|--5----0-(0)---0--|--5----0-(0)----2--||
 |--5----0-(0)---0--|--5----0-(0)---0--|--5----0-(0)----2--||
 |------------------|------------------|-------------------||
 |-------------3----|-------------3----|-------------3-----||

2nd Interlude
[C5A5]Gtrs I, II[G5] [C5A5] [G5] [C5A5] [G5] [D5C5] [G5]
PM PM PM PM PM PM PM
E E E E E E E E E E E E E E E E E E E E E E E E E E E E +E Q. 3x
 
 ||------------------|-----------------|-----------------|--------------------||
 ||o-----------------|-----------------|-----------------|-------------------o||
 ||--5p2---2---2p0---|-5p2---2---2p0---|-5p2---2---2p0---|-7p5---5-(5)-0------||
 ||--5p2---2---2p0---|-5p2---2---2p0---|-5p2---2---2p0---|-7p5---5-(5)-0------||
 ||o-----0-----------|-----0-----------|-----0-----------|-----0-------------o||
 ||----------------3-|---------------3-|---------------3-|--------------------||

Half-Time Feel
N.C.
[E] [E] [E] [E] [E] [E] [E] [E] [E] [E] [E] [E] [E] [E] [E] [E] [E] [E] [E] [E] [E] [E] [E] [E] [E] [E] [E] [E] [E] [E] [E] [E]  
 
 |-----------------|-----------------|-----------------|-----------------|
 |-----------------|-----------------|-----------------|-----------------|
 |-----------------|-----------------|-----------------|-----------------|
 |-----------------|-------------0-0-|-3-3-3-2-2-2-1-1-|-1-0-0-0---------|
 |-0-0-0-1-1-1-2-2-|-2-3-3-3-4-4-----|-----------------|---------3-3-2-2-|
 |-----------------|-----------------|-----------------|-----------------|

Free Time
Q E E E E E E E E E E E E E E W +W
 
 |----------------|-----------------||----------:--------:
 |----------------|-----------------||----------:--------:
 |----------------|-----------------||----------:--------:
 |----------------|-----------------||----------:--------:
 |-1--1-0-0-0-----|-----------------||----------:--------:
 |------------4-4-|-4-3-3-3-2-2-1-1-||-0--------:-(0)----:

+W +W +W
 
 |------------:------------:--------||
 |------------:------------:--------||
 |------------:------------:--------||
 |------------:------------:--------||
 |------------:------------:--------||
 |-(0)--------:-(0)--------:-(0)----||

Outro
[C5A5]Gtrs I, II[G5] [C5A5] [G5] [C5A5] [G5] [D5C5] [G5]
PM PM PM PM PM PM PM
E E E E E E E E E E E E E E E E E E E E E E E E E E E E +E Q.
 
 ||------------------|-----------------|-----------------|--------------------||
 ||o-----------------|-----------------|-----------------|-------------------o||
 ||--5p2---2---2p0---|-5p2---2---2p0---|-5p2---2---2p0---|-7p5---5-(5)-0------||
 ||--5p2---2---2p0---|-5p2---2---2p0---|-5p2---2---2p0---|-7p5---5-(5)-0------||
 ||o-----0-----------|-----0-----------|-----0-----------|-----0-------------o||
 ||----------------3-|---------------3-|---------------3-|--------------------||

Duration Legend
 
 ---------------
 W - whole; H - half; Q - quarter; E - 8th; S - 16th; T - 32nd; X - 64th; a - acciaccatura

+ - note tied to previous; . - note dotted; .. - note double dotted
Uncapitalized letters represent notes that are staccato (1/2 duration)
Irregular groupings are notated above the duration line
Duration letters will always appear directly above the note/fret number it represents the
duration for. Duration letters with no fret number below them represent rests. Multi-
bar rests are notated in the form Wxn, where n is the number of bars to rest for. Low
melody durations appear below the staff
Tablature Legend
 
 ----------------

h - hammer-on
p - pull-off
b - bend
pb - pre-bend
r - bend release (if no number after the r, then release immediately)
/\ - slide into or out of (from/to "nowhere")
s - legato slide
S - shift slide
- natural harmonic
(n) - artificial harmonic
n(n) - tapped harmonic
~ - vibrato
tr - trill
T - tap
TP - trem. picking
PM - palm muting
\n/ - tremolo bar dip; n = amount to dip
\n - tremolo bar down
n/ - tremolo bar up
/n\ - tremolo bar inverted dip
= - hold bend; also acts as connecting device for hammers/pulls
- volume swell (louder/softer)
x - on rhythm slash represents muted slash
o - on rhythm slash represents single note slash
Misc Legend
 
 -----------

| - bar
|| - double bar
||o - repeat start
o|| - repeat end
*| - double bar (ending)
: - bar (freetime)
$ - Segno
& - Coda
Tempo markers - = BPM(8/16=s8/s16), where s8 = swing 8ths, s16 = swing 16ths
***************************************************************************************
* Generated using Power Tab Editor by Brad Larsen - http://powertab.guitarnetwork.org *
***************************************************************************************

Important: The song above is NOT stored on the Chordie server. The original song is hosted at www.guitaretab.com. Chordie works as a search engine and provides on-the-fly formatting. Chordie does not index songs against artists'/composers' will. To remove this song please click here.

Text color:
Chord color:
Chord grids: 
Font size:    
Page size: 

A A5 C C5 D5 E E5 F5 G G5
Rate #2 of 2 versions

Login - add to songbook

SHARE PAGE  




You need to log in to post comments