Guitar Tabs, Chords and Lyrics
Update 25:10. 13:00. Site is back up running again. Songbooks are recovered. Woring on getting search back up..


Onderweg  Abel

Title: Onderweg
Album: De Stilte Voorbij
Tabbed by: vincentr248
Tuning: Standard
Chords used:
[Am] [Am/G] [E] [F] [Dm] [C]  
[A#m] [F#] [G#] [D#m] [C#] [A#m/G#]  
 
 e -0----0-----0---1---1---0-----3-----1----2---4---6---4---1--|
 B -1----1-----0---1---3---1--(0 or 3)-2----2---4---7---6---2--|
 G -2----2-----1---2---2---0-----0-----3----3---5---8---6---x--|
 D -2----2-----2---3---0---2-----0-----3----4---6---8---6---3--|
 A -0-(0 or x)-2---3---x---3-----2-----1----4---6---6---4---x--|
 E -x----3-----0---1---x---x-----3-----x----2---4---x---x---4--|

(I'm not 100% sure this is the right way to play A#m/G#, but it sounds Ok. Make sure you
play the G & A string!)
Intro Piano:
~ : hold it, don't release, "let ring"
/ : slide
 
 e|-5~-5-8-7--8-10/12--8-7-----------5-8-7--5------8-8--7~|
 B|------------------------10-9-10~-----------8-6---------|
 G|-------------------------------------------------------|
 D|-------------------------------------------------------|
 A|-------------------------------------------------------|
 E|-------------------------------------------------------|

Intro Guitar: Am Am/G F E (x2)
Verse 1:
Ik doe de [Am]deur dicht[Am/G]
[F] Straten lijken te [E]huilen
[F] Wolken lijken te [E]vluchten
Ik stap de [Am]bus in[Am/G]
[F] Mensen lijken te [E]kijken
[F] Ik wil ze ont[E]wijken, voordat ze [Dm]mij zien
Chorus:
[C] Het is allang verleden t[G]ijd
[Dm] Dat je mijn verjaardag niet ve[Am]rgat
Je onvoorwaarde[G]lijk koos voor mij[F] [E]
Verse 2:
Ik zie de [Am]velden[Am/G]
[F] Langs me heen gaan [E]huizen
[F] Het is stil achter de [E]ruiten
Wie kan [Am]mij zien[Am/G]
In [F]blauw verlichtte [E]treinen
Je [F]hart zo dicht [E]bij me, maar het [Dm]klopt niet
Chorus:
[C] En het is allang verleden t[G]ijd
[Dm]Je zwarte haren en je l[Am]ach dat je heel de [G]wereld voor mij was
[C]Het zit ook veel te diep in [G]mij
[Dm]Dat ik mocht delen wat jij [Am]had, dat je door m'n [G]haren ging en [F]zei[E]
( Tab from: http://www.guitartabs.cc/tabs/a/abel/onderweg_crd_ver_4.html )
Verse 3:
Je kent m'n [Am]stem niet[Am/G]
Wie ik [F]ben is wat je [E]nu ziet
Wil je [F]dansen met [E]illusies in ged[Am]achten[Am/G]
[F]Ben je verder dan het [E]heden
Wil je [F]terug naar je ver[E]leden
Zegt je [Dm]dat iets
Chorus:
[C] Het is allang verleden t[G]ijd
[Dm] Rode wijn op het ter[Am]ras dat je [G]heel de wereld voor mij was
[C] Het ziet nog veel te diep in[G] mij
[Dm] Dat ik vergat hoe jij me za[Am]g, dat ik zo anders b[G]en dan jij[F-E]
Piano solo:
 
 e --------------------------------------------
 B --------------------15-17-------------------
 G ---14--14-17-16--17--------17-16--14-13-----
 D --------------------------------------------
 A --------------------------------------------
 E --------------------------------------------
 e -------------------------------------------
 B -------------------------------------------
 G ---14-14-17-16--14-12--------17-17-16------
 D --------------------------15---------------
 A -------------------------------------------
 E -------------------------------------------
 e -----------------------------------
 B --------------------15-17----------
 G ---14--14-17-16--17--------17-14---
 D -----------------------------------
 A -----------------------------------
 E -----------------------------------

Guitar during solo: Am Am/G F E (x2)
Am Am/G F~ (x1)
Verse 4:
Ik loop de [A#m]straat in[A#m/G#]
Het [F#]zal me nooit ver[F]warmen
Omdat het [F#]mij niet kan on[F]armen
Wie zou [A#m]mij zien[A#m/G#]
Het liefst [F#]zou ik willen [F]schreeuwen
Ik zou on[F#]eindig willen [F]schreeuwen, maar het ga[D#m]at niet
Chorus:
[C#] Jij bent niet alleen van [G#]mij
[D#m] Ik kan de wereld laten zien [A#m]dat het zo [G#]beter is misschien
[C#] Het is allang verleden [G#]tijd
D#m A#m* G#* F#*
Dat ik vergat hoe jij me zag, dat ik zo anders ben dan jij
(* : strum once & let ring)
Outro:
you can just end with: A#m* - G#* - F#*
or
Acoustic Guitar:
[A#m] [G#] [F#]  
 
 e ----------------------
 B -------6-----------2~~
 G -----6--------6-5--3~~
 D ---8--------6------4~~
 A -8--------6--------4~~
 E ----------------------

Electric Guitar:
 
 e ----------------------------
 B ------9h11h9----------------
 G ---10--------10-8-10-11-10~~
 D -8--------------------------
 A ----------------------------
 E ----------------------------

Feel free to correct/comment!
Enjoy!
Vincent

Important: The song above is NOT stored on the Chordie server. The original song is hosted at www.guitartabs.cc. Chordie works as a search engine and provides on-the-fly formatting. Chordie does not index songs against artists'/composers' will. To remove this song please click here.

Text color:
Chord color:
Chord grids: 
Font size:    
Page size: 

A#m A#m/G# Am C C# D#m Dm E F F# G G#
Rate #2 of 6 versions

Jango Player

Login - add to songbook

SHARE PAGE  




You need to log in to post comments