Guitar Tabs, Chords and Lyrics
Major upgrade!! After one year development the new version of Chordie is now online! Please give feedback.


Are You Ready  AC/DC

AC/DC-Are You Ready
The Razor's Edge (1990)
Transcribed by: playinbass1432
Email: playinbass1432@hotmail.com
Drop D Tuning (The first D in the intro is an octave lower than the 5th fret on the A
which is played during the verses. Listen for yourself!)
Intro: (0:18)
[D] [F#] [G] [F]  
 
 G|-----------------|-----------------|-----------------|-----------------|
 D|-----------------|-----------------|-----------------|-----------------|
 A|-----------------|-----------------|-----------------|-----------------|
 D|-0---------------|-4---------------|-5---------------|-3---------------|

[F]  
 
 G|-----------------|-----------------|
 D|-----------------|-----------------|
 A|-----------------|-----------------|
 D|-3---------------|-----------------|

Pre Verse 1:
[D]  
 
 G|-----------------|-----------------|-----------------|-----------------|
 D|-----------------|-----------------|-----------------|-----------------|
 A|-5-5-5-5-5-5-5-5-|-5-5-5-5-5-5-5-5-|-5-5-5-5-5-5-5-5-|-5-5-5-5-5-5-5-5-|
 D|-----------------|-----------------|-----------------|-----------------|

[D]  
 
 G|-----------------|-----------------|-----------------|-----------------|
 D|-----------------|-----------------|-----------------|-----------------|
 A|-5-5-5-5-5-5-5-5-|-5-5-5-5-5-5-5-5-|-5-5-5-5-5-5-5-5-|-5-5-5-5-5-5-5-5-|
 D|-----------------|-----------------|-----------------|-----------------|

Verse 1:
[D]  
 
 G|-----------------|-----------------|-----------------|-----------------|
 D|-----------------|-----------------|-----------------|-----------------|
 A|-5-5-5-5-5-5-5-5-|-5-5-5-5-5-5-5-5-|-5-5-5-5-5-5-5-5-|-5-5-5-5-5-5-5-5-|
 D|-----------------|-----------------|-----------------|-----------------|

[D]  
 
 G|-----------------|-----------------|-----------------|-----------------|
 D|-----------------|-----------------|-----------------|-----------------|
 A|-5-5-5-5-5-5-5-5-|-5-5-5-5-5-5-5-5-|-5-5-5-5-5-5-5-5-|-5-5-5-5-5-5-5-5-|
 D|-----------------|-----------------|-----------------|-----------------|

Pre Chorus 1:
[D] [F#] [G] [F]  
 
 G|-----------------|-----------------|-----------------|-----------------|
 D|-----------------|-----------------|-----------------|-----------------|
 A|-----------------|-----------------|-----------------|-----------------|
 D|-0---------------|-4---------------|-5---------------|-3---------------|

[D] [F#] [G] [F]  
 
 G|-----------------|-----------------|-----------------|-----------------|
 D|-----------------|-----------------|-----------------|-----------------|
 A|-----------------|-----------------|-----------------|-----------------|
 D|-0---------------|-4---------------|-5---------------|-3---------------|

Chorus 1:
[D] [C] [D] [C] [B] [C] [B] [A] [B] [C] [B] [C]  
 
 G|-----------------|-----------------|-----------------|-----------------|
 D|-----------------|-----------------|-----------------|-----------------|
 A|-5-5-5-3-3-5-----|-3-3-3-2-2-3-----|-2-2-2-0-0-2-----|-3-3-3-2-2-3-----|
 D|-----------------|-----------------|-----------------|-----------------|

[D] [C] [D] [C] [B] [C] [B] [A] [B] [C] [B] [C]  
 
 G|-----------------|-----------------|-----------------|-----------------|
 D|-----------------|-----------------|-----------------|-----------------|
 A|-5-5-5-3-3-5-----|-3-3-3-2-2-3-----|-2-2-2-0-0-2-----|-3-3-3-2-2-3-----|
 D|-----------------|-----------------|-----------------|-----------------|
 G|-----------------|
 D|-----------------|
 A|-----------------|
 D|-----------------|

Pre Verse 2:
[D]  
 
 G|-----------------|-----------------|-----------------|-----------------|
 D|-----------------|-----------------|-----------------|-----------------|
 A|-5-5-5-5-5-5-5-5-|-5-5-5-5-5-5-5-5-|-5-5-5-5-5-5-5-5-|-5-5-5-5-5-5-5-5-|
 D|-----------------|-----------------|-----------------|-----------------|

Verse 2:
[D]  
 
 G|-----------------|-----------------|-----------------|-----------------|
 D|-----------------|-----------------|-----------------|-----------------|
 A|-5-5-5-5-5-5-5-5-|-5-5-5-5-5-5-5-5-|-5-5-5-5-5-5-5-5-|-5-5-5-5-5-5-5-5-|
 D|-----------------|-----------------|-----------------|-----------------|

[D]  
 
 G|-----------------|-----------------|-----------------|-----------------|
 D|-----------------|-----------------|-----------------|-----------------|
 A|-5-5-5-5-5-5-5-5-|-5-5-5-5-5-5-5-5-|-5-5-5-5-5-5-5-5-|-5-5-5-5-5-5-5-5-|
 D|-----------------|-----------------|-----------------|-----------------|

Pre Chorus 2:
( Tab from: http://www.guitartabs.cc/tabs/a/ac_dc/are_you_ready_btab_ver_3.html )
[D] [F#] [G] [F]  
 
 G|-----------------|-----------------|-----------------|-----------------|
 D|-----------------|-----------------|-----------------|-----------------|
 A|-----------------|-----------------|-----------------|-----------------|
 D|-0---------------|-4---------------|-5---------------|-3---------------|

Chorus 2:
[D] [C] [D] [C] [B] [C] [B] [A] [B] [C] [B] [C]  
 
 G|-----------------|-----------------|-----------------|-----------------|
 D|-----------------|-----------------|-----------------|-----------------|
 A|-5-5-5-3-3-5-----|-3-3-3-2-2-3-----|-2-2-2-0-0-2-----|-3-3-3-2-2-3-----|
 D|-----------------|-----------------|-----------------|-----------------|

[D] [C] [D] [C] [B] [C] [B] [A] [B] [C] [B] [C]  
 
 G|-----------------|-----------------|-----------------|-----------------|
 D|-----------------|-----------------|-----------------|-----------------|
 A|-5-5-5-3-3-5-----|-3-3-3-2-2-3-----|-2-2-2-0-0-2-----|-3-3-3-2-2-3-----|
 D|-----------------|-----------------|-----------------|-----------------|
 G|-----------------|-----------------|
 D|-----------------|-----------------|
 A|-----------------|-----------------|
 D|-----------------|-----------------|

Guitar Solo:
[D] [C] [D] [D] [C] [D]  
 
 G|-----------------|-----------------|-----------------|-----------------|
 D|-----------------|-----------------|-----------------|-----------------|
 A|-5-5---3---5-5-5-|-5-5-5-5-5-5-5-5-|-5-5---3---5-5-5-|-5-5-5-5-5-5-5-5-|
 D|-----------------|-----------------|-----------------|-----------------|

[D] [C] [D] [D] [C] [D]  
 
 G|-----------------|-----------------|-----------------|-----------------|
 D|-----------------|-----------------|-----------------|-----------------|
 A|-5-5---3---5-5-5-|-5-5-5-5-5-5-5-5-|-5-5---3---5-5-5-|-5-5-5-5-5-5-5-5-|
 D|-----------------|-----------------|-----------------|-----------------|

[D] [F#] [G] [F]  
 
 G|-----------------|-----------------|-----------------|-----------------|
 D|-----------------|-----------------|-----------------|-----------------|
 A|-----------------|-----------------|-----------------|-----------------|
 D|-0---------------|-4---------------|-5---------------|-3---------------|

[D] [F#] [G] [F]  
 
 G|-----------------|-----------------|-----------------|-----------------|
 D|-----------------|-----------------|-----------------|-----------------|
 A|-----------------|-----------------|-----------------|-----------------|
 D|-0---------------|-4---------------|-5---------------|-3---------------|

Chorus 3:
[D] [C] [D] [C] [B] [C] [B] [A] [B] [C] [B] [C]  
 
 G|-----------------|-----------------|-----------------|-----------------|
 D|-----------------|-----------------|-----------------|-----------------|
 A|-5-5-5-3-3-5-----|-3-3-3-2-2-3-----|-2-2-2-0-0-2-----|-3-3-3-2-2-3---3-|
 D|-----------------|-----------------|-----------------|-----------------|

[D]  
 
 G|-----------------|-----------------|-----------------|-----------------|
 D|-----------------|-----------------|-----------------|-----------------|
 A|-5-5-5-5-5-5-5-5-|-5-5-5-5-5-5-5-5-|-5-5-5-5-5-5-5-5-|-5-5-5-5-5-5-5-5-|
 D|-----------------|-----------------|-----------------|-----------------|

[D]  
 
 G|-----------------|-----------------|-----------------|-----------------|
 D|-----------------|-----------------|-----------------|-----------------|
 A|-5-5-5-5-5-5-5-5-|-5-5-5-5-5-5-5-5-|-5-5-5-5-5-5-5-5-|-5-5-5-5-5-5-5-5-|
 D|-----------------|-----------------|-----------------|-----------------|

[D]  
 
 G|-----------------|-----------------|-----------------|-----------------|
 D|-----------------|-----------------|-----------------|-----------------|
 A|-5-5-5-5-5-5-5-5-|-5-5-5-5-5-5-5-5-|-5-5-5-5-5-5-5-5-|-5-5-5-5-5-5-5-5-|
 D|-----------------|-----------------|-----------------|-----------------|

[D] [D] [F] [C] [F]  
 
 G|-----------------|-----------------|-----------------|-----------------|
 D|-----------------|-----3-----------|-----------------|-----3-----------|
 A|-5-5-5-5-5-5-5-5-|-5-5-----3-------|-----------------|-5-------3-------|
 D|-----------------|-------------5---|-----------------|-------------3---|

[D] [D]  
 
 G|-----------------|-----------------|-----------------|-----------------|
 D|-----------------|-----------------|-----------------|-----------------|
 A|-----------------|-----------------|-----------------|-----------------|
 D|-0---------------|-----------------|-----------------|-0---------------|


Important: The song above is NOT stored on the Chordie server. The original song is hosted at www.guitartabs.cc. Chordie works as a search engine and provides on-the-fly formatting. Chordie does not index songs against artists'/composers' will. To remove this song please click here.

Text color:
Chord color:
Chord grids: 
Font size:    
Page size: 

A B C D F F# G
Rate #1 of 5 versions

Jango Player

Login - add to songbook

SHARE PAGE  




You need to log in to post comments